Jump to: navigation, search

1,000 Miles Away (tabs)

Lyrics & Info

Tabs

Performances (93)

1,000 Miles Away
Tabbed byJessica
TuningStandard
CapoNone

INTRO:

 Em9                                                 D
                                                                  

-2----------2----------0h2--------------3------------2------------2--------------
-------3--------3-------------3--------------3---------------3---------3---------
----0--------------0--------------0--------------0--------2----------------2-----
-2----------------------2----------------------------0---------------------------
---------------------------------------------------------------------------------
---------------------------------------------------------------------------------
                                            Em9

-0h2---------0h2-----------0h2-----2---------3-----------3------
---------------------------------------3------------3------3----
------2-------------2---------------------2------0------------0-
-0------------0-------------0----------------2------------------
----------------------------------------------------------------
----------------------------------------------------------------


                                         D


-3h2----------3h2-------------3/5----5---------3-----------2-----------2---0h2--------
----------3--------------3----------------3-------------------------3----------3------
-------0-------------0-------------------------0----------------2----------------2----
-2-------------2--------------2----------------------------0-----------------------0--
--------------------------------------------------------------------------------------
--------------------------------------------------------------------------------------


VERSE:


 Em9                                                 D
                                                                  

-2----------2----------0h2--------------3------------2------------2---------------0h2---------0h2-----------0h2-----2--------
-------3--------3-------------3--------------3---------------3---------3------------------------------------------------3----
----0--------------0--------------0--------------0--------2----------------2-----------2-------------2---------------------2-
-2----------------------2----------------------------0----------------------------0------------0-------------0---------------
-----------------------------------------------------------------------------------------------------------------------------
-----------------------------------------------------------------------------------------------------------------------------
                                           


CHORUS:

---------------0--------------------------0---------------------------------3----2----------2----------0h2---------
-1-------1--------1------0h1-------1-------1--------------------0-----------------------3-------3---------------3--
------0---------------0----------0---------------0----------0------0----------------2--------------2--------2------
--------------------------------------------------------0-------------0---------0-----------------------0----------
-3-------------------------3---------------------------------------------------------------------------------------
-------------------------------------------------------------------------------------------------------------------