Jump to: navigation, search

2 Find U (tabs)

Lyrics & Info

Tabs

Performances (14)

2 Find U
Tabbed byJessica
TuningStandard
CapoNone
CHORDS USED:


  D     G    A   Bm    Fm  

e-2-----3----0----2-----2--
B-3-----3----2----3-----2--
G-2-----0----2----4-----2--
D-0-----2----2----4-----4--
A-0-----3----0----2-----4--
E-----------------------2--

INTRO: 

  Bm             G

e--2-----2---2---5---3---2----
B-----3----3---3---3---3---3--
G-----------------------------
D-----------------------------
A-----------------------------
E--2-------------3------------


D      G  

If I asked u a question 

Bm               G           Bm

Would u look me in the eyes? 

G            A       

Has our love been built on lies? 

D     G

Well, why I'm asking

Bm         G           Bm  

U see, the time is now 

            G

2 turn our backs forever 

A             G

Or work this through somehow

    Bm           G

And I want 2 see u 

Bm       G

I want 2 feel new again 

CHORUS: 

     D

Hey, u 

       A

Do not walk away 

 Bm               

Let's choose love, come on 

G

What do u say? 

     D

Hey, u 

          A

Know that I would spend 

Bm                G

My whole life all over again 

  Bm   G

2 find u 

VERSE 2: 
We've layered hurt on hurt 
I've seen pain cloud your eyes 
But we are bruised, not broken 
Like a phoenix, love will rise 
And do u see me? 
Do u feel new again? 

BRIDGE: 

Bm  

Look in my eyes

A

Kiss my mouth hard 

G

Let your conviction 

    F#m

Reassure my heart 

Bm

Promise me now 

A

I'll promise u, too 

G

I love u