Jump to: navigation, search

Adrian (tabs)

Lyrics & Info

Tabs

Performances (22)

Adrian
Tabbed bySadsong725
TuningStandard
CapoNone
verse (adrian came home... an unfortunate... etc)
     Em7         Am7           Em           Am7
e---------0------------3----|--------0-----------0-------|
b--3---------3---1----------|--0--------0---1------------|
g-----0-------------0-----0-|-----0------------0-----0---|repeat however
d---------------------------|----------------------------|  many times 
a----------------0----------|---------------0------------|
e--0------------------------|--0-------------------------|

prechorus (and people talk, people stare, etc.)
   C                          G
e--------------0-----------|---------------3---------------|
b----------------1---------|------------------3------------|
g----------0-------0-------|---------------------0---------| x2 
d-----0h2-----2------2-----|--------0--------------0-------|
a--3-----------------------|----0h2----2-------------------|
e--------------------------|--3----------------------------|

Chorus (strum each chord once)
  C           G
O Adrian come out and play

e-----------3--|        
b--------1-----|        
g-----0--------|   x2   
d--------------|        
a--------------|      
e--3-----------|       


Bridge 
Bm              Em
She sat by his side
Am                        Bm
And watched the years fly by
Am                       Bm
He looked so fragile he looked so small
        F#m   
And she wondered why he was still alive at all