Jump to: navigation, search

Afraid It's Too Late (tabs)

Lyrics & Info

Tabs

Performances (1)

Afraid It's Too Late
Tabbed byJessica
TuningStandard
CapoNone
Afraid It's Too Late
As Performed on "Innerchange Days" 






e----------------------------------------------------------------------------
B--------3-----3------3----3------3------3-----3-----3-----3-----3-----3---3-
G-----3-----3-----------3------3------------3-----3-----------3-----3--------
D--5------5------5----4------4------4-----3-----3-----3-----2-----2------2---
A----------------------------------------------------------------------------
E----------------------------------------------------------------------------
     She sits at the window              All dressed in      white 


e----------------------------------------------------------------------------
B--------3-----3------3----3------3------3-----3-----3-----3-----3-----3---3-
G-----3-----3-----------3------3------------3-----3-----------3-----3--------
D--5------5------5----4------4------4-----3-----3-----3-----2-----2------2---
A----------------------------------------------------------------------------
E----------------------------------------------------------------------------
  It's been a long    time              since she has        cried 


e----------------------------------------------------------------------------
B--------3-----3------3----3------3------3-----3-----3-----3-----3-----3---3-
G-----3-----3-----------3------3------------3-----3-----------3-----3--------
D--5------5------5----4------4------4-----3-----3-----3-----2-----2------2---
A----------------------------------------------------------------------------
E----------------------------------------------------------------------------
  And the tears are   coming and        tumbling           down


e----------------------------------------------------------------------------
B--------3-----3------3----3------3------3-----3-----3-----3-----3-----3---3-
G-----3-----3-----------3------3------------3-----3-----------3-----3--------
D--5------5------5----4------4------4-----3-----3-----3-----2-----2------2---
A----------------------------------------------------------------------------
E----------------------------------------------------------------------------
   And she      re  - members her        childhood          crown 

e-------------------------------------------------------
B-----1-----1----------1-----1-----------3-----3------3-
G---2-----2-----2----2-----2------2----3-----3-----3--3-
D-3-----3-----3----3-----3------3----1-----1-----1----1-
A-------------------------------------------------------
E-------------------------------------------------------
She's afraid                         it's too         late 


e----------------------------------------------------------------------------
B--------3-----3------3----3------3------3-----3-----3-----3-----3-----3---3-
G-----3-----3-----------3------3------------3-----3-----------3-----3--------
D--5------5------5----4------4------4-----3-----3-----3-----2-----2------2---
A----------------------------------------------------------------------------
E---------------------------------------------------------------------------- 
  She steps out on the porch  Takes a minute from her       day 

e----------------------------------------------------------------------------
B--------3-----3------3----3------3------3-----3-----3-----3-----3-----3---3-
G-----3-----3-----------3------3------------3-----3-----------3-----3--------
D--5------5------5----4------4------4-----3-----3-----3-----2-----2------2---
A----------------------------------------------------------------------------
E----------------------------------------------------------------------------
Just like when she was a child To listen to what the wind would say 

e----------------------------------------------------------------------------
B--------3-----3------3----3------3------3-----3-----3-----3-----3-----3---3-
G-----3-----3-----------3------3------------3-----3-----------3-----3--------
D--5------5------5----4------4------4-----3-----3-----3-----2-----2------2---
A----------------------------------------------------------------------------
E----------------------------------------------------------------------------
  She was carefree like the            children are      today Say, 

e----------------------------------------------------------------------------
B--------3-----3------3----3------3------3-----3-----3-----3-----3-----3---3-
G-----3-----3-----------3------3------------3-----3-----------3-----3--------
D--5------5------5----4------4------4-----3-----3-----3-----2-----2------2---
A----------------------------------------------------------------------------
E----------------------------------------------------------------------------
mommy, mommy, won't you come out and play 

e-------------------------------------------------------
B-----1-----1----------1-----1-----------3-----3------3-
G---2-----2-----2----2-----2------2----3-----3-----3--3-
D-3-----3-----3----3-----3------3----1-----1-----1----1-
A-------------------------------------------------------
E-------------------------------------------------------
She's afraid                         it's too         late 

e----------------------------------------------------------------------------
B-------5-----5------5----5------5------5-----5-----5-----5-----5-----5----5-
G-----5-----5-----------5------5------------5-----5-----------5-----5--------
D--7------7------7----6------6------6-----5-----5-----5-----4-----4------4---
A----------------------------------------------------------------------------
E----------------------------------------------------------------------------
   When she was a child She had crowns hiding              gold 

e----------------------------------------------------------------------------
B-------5-----5------5----5------5------5-----5-----5-----5-----5-----5----5-
G-----5-----5-----------5------5------------5-----5-----------5-----5--------
D--7------7------7----6------6------6-----5-----5-----5-----4-----4------4---
A----------------------------------------------------------------------------
E----------------------------------------------------------------------------
With such awe, each flower she did hold 

e----------------------------------------------------------------------------
B-------5-----5------5----5------5------5-----5-----5-----5-----5-----5----5-
G-----5-----5-----------5------5------------5-----5-----------5-----5--------
D--7------7------7----6------6------6-----5-----5-----5-----4-----4------4---
A----------------------------------------------------------------------------
E----------------------------------------------------------------------------
And she, she got down and felt the leaves of grass beneath her feet 

e----------------------------------------------------------------------------
B-------5-----5------5----5------5------5-----5-----5-----5-----5-----5----5-
G-----5-----5-----------5------5------------5-----5-----------5-----5--------
D--7------7------7----6------6------6-----5-----5-----5-----4-----4------4---
A----------------------------------------------------------------------------
E----------------------------------------------------------------------------
Amd how she hated things that were already maimed 

e----------------------------------------------------------------------------
B-------5-----5------5----5------5------5-----5-----5-----5-----5-----5----5-
G-----5-----5-----------5------5------------5-----5-----------5-----5--------
D--7------7------7----6------6------6-----5-----5-----5-----4-----4------4---
A----------------------------------------------------------------------------
E----------------------------------------------------------------------------
They took away her laughter They took away her crown

e----------------------------------------------------------------------------
B-------5-----5------5----5------5------5-----5-----5-----5-----5-----5----5-
G-----5-----5-----------5------5------------5-----5-----------5-----5--------
D--7------7------7----6------6------6-----5-----5-----5-----4-----4------4---
A----------------------------------------------------------------------------
E---------------------------------------------------------------------------- 
They said "hey girl, you gotta keep your feet on the ground" She said 

e----------------------------------------------------------------------------
B-------5-----5------5----5------5------5-----5-----5-----5-----5-----5----5-
G-----5-----5-----------5------5------------5-----5-----------5-----5--------
D--7------7------7----6------6------6-----5-----5-----5-----4-----4------4---
A----------------------------------------------------------------------------
E----------------------------------------------------------------------------
"oh, but they are" They say "Well laughter won't pay your bills" 

e----------------------------------------------------------------------------
B-------5-----5------5----5------5------5-----5-----5-----5-----5-----5----5-
G-----5-----5-----------5------5------------5-----5-----------5-----5--------
D--7------7------7----6------6------6-----5-----5-----5-----4-----4------4---
A----------------------------------------------------------------------------
E----------------------------------------------------------------------------
And the flower fell from her hand is falling still 

e----------------------------------------------------------------------------
B-------5-----5------5----5------5------5-----5-----5-----5-----5-----5----5-
G-----5-----5-----------5------5------------5-----5-----------5-----5--------
D--7------7------7----6------6------6-----5-----5-----5-----4-----4------4---
A----------------------------------------------------------------------------
E----------------------------------------------------------------------------
They taught her to be respectable Responsible somehow 

e----------------------------------------------------------------------------
B-------5-----5------5----5------5------5-----5-----5-----5-----5-----5----5-
G-----5-----5-----------5------5------------5-----5-----------5-----5--------
D--7------7------7----6------6------6-----5-----5-----5-----4-----4------4---
A----------------------------------------------------------------------------
E----------------------------------------------------------------------------
They taught her to be in every moment, barter and vow 

e----------------------------------------------------------------------------
B-------5-----5------5----5------5------5-----5-----5-----5-----5-----5----5-
G-----5-----5-----------5------5------------5-----5-----------5-----5--------
D--7------7------7----6------6------6-----5-----5-----5-----4-----4------4---
A----------------------------------------------------------------------------
E----------------------------------------------------------------------------
She forgot how it felt to have leaves of grass beneath her feet 

e----------------------------------------------------------------------------
B-------5-----5------5----5------5------5-----5-----5-----5-----5-----5----5-
G-----5-----5-----------5------5------------5-----5-----------5-----5--------
D--7------7------7----6------6------6-----5-----5-----5-----4-----4------4---
A----------------------------------------------------------------------------
E----------------------------------------------------------------------------
Now every tale, it screams to return to her childhood royalty 

e-------------------------------------------------------
B-----3-----3----------3-----3-----------5-----5------5-
G---4-----4-----4----4-----4------4----5-----5-----5--5-
D-5-----5-----5----5-----5------5----3-----3-----3----3-
A-------------------------------------------------------
E-------------------------------------------------------
She's afraid                         it's too         late

e----------------------------------------------------------------------------
B--------3-----3------3----3------3------3-----3-----3-----3-----3-----3---3-
G-----3-----3-----------3------3------------3-----3-----------3-----3--------
D--5------5------5----4------4------4-----3-----3-----3-----2-----2------2---
A----------------------------------------------------------------------------
E----------------------------------------------------------------------------
She takes one last moment Before going inside 

e----------------------------------------------------------------------------
B--------3-----3------3----3------3------3-----3-----3-----3-----3-----3---3-
G-----3-----3-----------3------3------------3-----3-----------3-----3--------
D--5------5------5----4------4------4-----3-----3-----3-----2-----2------2---
A----------------------------------------------------------------------------
E----------------------------------------------------------------------------
She takes a coat To dry her eye, and she 

e----------------------------------------------------------------------------
B--------3-----3------3----3------3------3-----3-----3-----3-----3-----3---3-
G-----3-----3-----------3------3------------3-----3-----------3-----3--------
D--5------5------5----4------4------4-----3-----3-----3-----2-----2------2---
A----------------------------------------------------------------------------
E----------------------------------------------------------------------------
She sighs soft and it all becomes clear 

e----------------------------------------------------------------------------
B--------3-----3------3----3------3------3-----3-----3-----3-----3-----3---3-
G-----3-----3-----------3------3------------3-----3-----------3-----3--------
D--5------5------5----4------4------4-----3-----3-----3-----2-----2------2---
A----------------------------------------------------------------------------
E----------------------------------------------------------------------------
It's probably laughter that gets you what you need What you need, much more than fear 


e-------------------------------------------------------
B-----1-----1----------1-----1-----------3-----3------3-
G---2-----2-----2----2-----2------2----3-----3-----3--3-
D-3-----3-----3----3-----3------3----1-----1-----1----1-
A-------------------------------------------------------
E-------------------------------------------------------
She's afraid                         it's too         late 

e----------------------------------------------------------------------------
B--------3-----3------3----3------3------3-----3-----3-----3-----3-----3---3-
G-----3-----3-----------3------3------------3-----3-----------3-----3--------
D--5------5------5----4------4------4-----3-----3-----3-----2-----2------2---
A----------------------------------------------------------------------------
E----------------------------------------------------------------------------

La la la la 

e----------------------------------------------------------------------------
B--------3-----3------3----3------3------3-----3-----3-----3-----3-----3---3-
G-----3-----3-----------3------3------------3-----3-----------3-----3--------
D--5------5------5----4------4------4-----3-----3-----3-----2-----2------2---
A----------------------------------------------------------------------------
E----------------------------------------------------------------------------
la la da da 

e----------------------------------------------------------------------------
B--------3-----3------3----3------3------3-----3-----3-----3-----3-----3---3-
G-----3-----3-----------3------3------------3-----3-----------3-----3--------
D--5------5------5----4------4------4-----3-----3-----3-----2-----2------2---
A----------------------------------------------------------------------------
E----------------------------------------------------------------------------
laaah