Jump to: navigation, search

Anyone But You (tabs)

Lyrics & Info

Tabs

Performances (16)

Anyone But You
Tabbed byBreAnn S
TuningStandard
Capo4th Fret
Standard Tuning, Capo 4, 4/4 Time, Quarter Note = ~80
                                (Metronomeonline.com)

Chords: Am = X02210  Am/G = 3X2010  A7 = 002020  
  Am7 =  X02010 C = X32010  C9= X32033  C/B = X20010  
        D = X00232  D7 = X00212  Em = 022000  
G = 320033  G7 = 320001  Gadd9 = X20033   G/F# = 200033    

Notes:  This tab is based off the live performance w/
	Wynn Varble from CMT Unplugged at Studio 330
        performance (2008) - it's not exact, but close

Intro:

  Gadd9       Am         Am/G         D
E--3-2-0-h/3--------------------------------2----------
B--3-------------------0--------1-----------3----------
G--0----------------2--------0-----0-----2-------------
D--0-------------2--------------------0----------------
A--2----------0----------------------------------------
E-------------------------3----------------------------

 (D)                 G          C9           G
---------------------------3-----------3-----3---------
---------------------------3-----------3-----3---------
---------0-----0-----------0-----------0-----0---------
--0-h/2-----2-----0-----0-----0-----2-----0--0---------
---------------------------------3-----------2---------
---------------------3-----------------------3---------

Verse 1:
                  D       D7
I haven't been out lately
                       G
There's too much going on
                      D      D7
My friends say I'll go crazy
                                  G   G7
If I don't get out and have some fun
-------------------
-------------------
-------------------
-------------------
------0------2-----
-------------------   C
So I put on my best dress
     C                        G
I confess, felt good I gotta say
           G/G#      A7
I stepped into the dance hall
                            D   D7
What I saw took my breath away

Chorus:

         Am    Am/G  D
Anyone but you
(D)      G     G/F#  Em
Anyone but you
                     Am  Am/G   D
I was hoping I would run  in  - to
            G   C9  G
Anyone but you

Verse 2: Guitar same as 1st verse

Through the smoke and neon
I saw you look my way
Here come those same old feelings
I thought had gone away
But I know that I am strong
And as the night draws on
Should you ask to take me home
I'm sure that I'll say no to…

Repeat Chorus

Bridge:

                  C   C/B   Am
I'd like to fall into your arms
      C  C/B    Am
With all your charms
        G
But we both know how that would end
         G/F#          Em
It would end with me crying
          Am7     D   D7
And you leaving again

Last Chorus:

         Am    Am/G  D
Anyone but you
(D)      G     G/F#  Em
Anyone but you
                     Am  Am/G   D
I was hoping I would run  in  - to
                   Am  Am/G   D
Was hoping I would run  in  - to
               Am  Am/G  D  G
Anyone but you