Jump to: navigation, search

Cold Song (tabs)

Lyrics & Info

Tabs

Performances (299)

Cold Song
Tabbed byBreAnn S
TuningStandard
CapoNone
Standard Tuning, no capo, 4/4 time, Quarter note=160
				  (metronomeonline.com)

If it sounds like a Polka, then it is a Polka. 

Chords:


            G                                 C

-----3-----3------3-----3--       -----3-----3-----3-----3--
-----3-----3------3-----3--       -----3-----3-----3-----3--
---------------------------       --------------------------
---------------------------       --------2-----------2-----
--------2------------2-----       --3-----------3-----------
--3-----------3------------       --------------------------

            D

-----2-----2-----2-----2--
-----3-----3-----3-----3--
--------------------------
--0-----------0-----------
--------0-----------0-----
--------------------------


Verse 1:

G                        C
It's getting cold and I'm starting to sneeze

G               D
I wipe my nose on my sleeve

G                      C   
I got the sniffles, I better drink my tea

    D                                           G 
Oh, do you do you wanna wanna catch a cold with me?

Chorus:

C                     G
I'd catch a cold with    you anytime

C                          D
  I ain't just feverish I ain't just lyin'

       C
Cause when your nose is running

        G
It's a perfect time for kissing and hugging

    D                                           G
Oh, do you do you wanna wanna catch a cold with me?


Verse 2:

G                            C
We'll stay inside where it's   nice and warm

 G                      D  
Tell our bosses we're caught in a sneezing storm

  G                                 C
    We'll sniffle and snuggle and watch some more TV

    D                                           G
Oh, do you do you wanna wanna catch a cold with me?


Repeat Chorus

Tag: (The last strums of the G are very short)

D
Do you do you wanna wanna, Wanna wanna do you do you

D
Do you wanna do me, Yeah (I wanna/oh) do ya

                                                G

                                               -3--3-3-3--3--
                                               -3--3-3-3--3--
                                               --------------
                                               --------------
    D                                          -2--2-2-2--2--
                                               -3--3-3-3--3--
Oh, do you do you wanna wanna catch a cold with me?