Jump to: navigation, search

Does Anyone Believe in Love Anymore (tabs)

Lyrics & Info

Tabs

Performances (55)

Does Anyone Believe in Love Anymore
Tabbed byJessica
TuningDADF#AD
CapoNone
Open D tuning = DADF#Ad

INTRO: (* MEANS HARMONICS)

d--------0----------0----------0----------0--------0------------0----------0----*12--
A----0-----0----0-----0----0-----0----0----------0-----0----0-----0----0-----0--*12--
F#-----0----------0----------0----------0---0--------0--------0----------0------*12--
D-------------------------------------------------------------------------------*12--
A--5----------4----------2----------0-------------------------------------------*12--
D----------------------------------------------5----------2----------0----------*12--



d--------0----------0----------0----------0--------0------------0----------0----------0---
A----0-----0----0-----0----0-----0----0----------0-----0----0-----0----0-----0----0-----0-
F#-----0----------0----------0----------0---0--------0--------0----------0----------0-----
D-----------------------------------------------------------------------------------------
A--5----------4----------2----------0-----------------------------------------------------
D----------------------------------------------5----------2----------0----------0---------
  Take       my          hand      Don't      fall        be        hind


                                                                      (strum measure)
d--------0----------0----------0----------0--------0------------0----------0---
A----0-----0----0-----0----0-----0----0----------0-----0----0-----0----0-----0-
F#-----0----------0----------0----------0---0--------0--------0------0----0----
D--------------------------------------------------------------------5----5----
A--5----------4----------2----------0--------------------------------5----5----
D----------------------------------------------2----------4----------5----5----
  The night     is       dangerous     And I   fol       low         blind



The heart Is a red smear
So eager to bleed
So lay here with me
Darling , please


d--------0----------0----------0----------0----
A----0-----0----0-----0----0-----0----0--------
F#-----0----------0----------0----------0---0--
D----------------------------------------------
A--2----------2----------4----------4----------
D----------------------------------------------
  How does a             heart 

d--------0----------0----------0----------0----
A----0-----0----0-----0----0-----0----0--------
F#-----0----------0----------0----------0---0--
D----------------------------------------------
A--2----------2----------4----------4----------
D----------------------------------------------
  know when to          fall again?


d--------0----------0----------0----------0----
A----0-----0----0-----0----0-----0----0--------
F#-----0----------0----------0----------0---0--
D----------------------------------------------
A--2----------2----------4----------4----------
D----------------------------------------------
  How does a             heart 

d--------0----------0----------0----------0----
A----0-----0----0-----0----0-----0----0--------
F#-----0----------0----------0----------0---0--
D----------------------------------------------
A--2----------2----------4----------4----------
D----------------------------------------------
  know when to          fall again?  I'll follow you 


d--------0----------0----------0----
A----0-----0----0-----0----0-----0--
F#-----0----------0----------0------
D--4----------2----------0----------
A-----------------------------------
D-----------------------------------
  down,      down,       down, I'll follow you 

                         (strum measure)
d--------0----------0----------0----
A----0-----0----0-----0----0-----0--
F#-----0----------0----------0------
D--4---------------------5----------
A-------------4----------5------------
D------------------------5-----------
down, down, down

(**From here, strum verses/chorus freely typ. above**)


I'm part woman
I'm still half child
I've been hurt and I've hurt others
In loves jungles ever wild
But the heart is blind
It wants only to love again
I'm frightened & I don't mind saying
Stay with me friend

How does a heart know when to fall again?
How does a heart know when to fall again?
I'll follow you down, down, down
I'll follow you down, down, down

Here it comes again
I cant help myself
I'm falling in
Call me naive
But I believe
Your two blue eyes are all I see

(VERSE PROGRESSION WITH PICKING)

Hey, does anyone believe in love anymore?
I need to know does anyone
believe in love, I mean true love, anymore?
Does anyone believe in love