Jump to: navigation, search

Dreamer (tabs)

Lyrics & Info

Tabs

Performances (0)

Dreamer
Tabbed byJessica
TuningStandard
Capo5th Fret
Dreamer 
As Written and Performed by Jewel Murray

Standard tuning (EADGBe) with a capo on the 5th fret

Played freely. The picking pattern is not always the same.


Don’t wanna hear no 
    A

E-------------------------------------
A-----0-------------------------------
D---2-------2---------2-0-----0-------
G-------2----------2--------2-----2---
B------2---------2---------2-----2----
e---0-------0-----------0-----0-------
sad songs I say to the darkness 


A

E-------------------------------------
A-----0-------------------------------
D---2-------2---------2-0-----0-------
G-------2----------2--------2-----2---
B------2---------2---------2-----2----
e---0-------0-----------0-----0-------
But it doesn’t respond 


A
E-------------------------------------
A-----0-------------------------------
D---2-------2---------2-0-----0-------
G-------2----------2--------2-----2---
B------2---------2---------2-----2----
e---0-------0-----------0-----0-------
I ask if I sing a new one 



A

E-------------------------------------
A-----0-------------------------------
D---2-------2---------2-0-----0-------
G-------2----------2--------2-----2---
B------2---------2---------2-----2----
e---0-------0-----------0-----0-------
Will I always sing alone? 


A
E-------------------------------------
A-----0-------------------------------
D---2-------2---------2-0-----0-------
G-------2----------2--------2-----2---
B------2---------2---------2-----2----
e---0-------0-----------0-----0-------
For so long I have known only sorrow 


A
E-------------------------------------
A-----0-------------------------------
D---2-------2---------2-0-----0-------
G-------2----------2--------2-----2---
B------2---------2---------2-----2----
e---0-------0-----------0-----0-------
How could I fail to hear? 


     A

E-------------------------------------
A-----0-------------------------------
D---2-------2---------2-0-----0-------
G-------2----------2--------2-----2---
B------2---------2---------2-----2----
e---0-------0-----------0-----0-------
The sound of all the sleeping hearts The timid hopefuls 



      A

E-------------------------------------
A-----0-------------------------------
D---2-------2---------2-0-----0-------
G-------2----------2--------2-----2---
B------2---------2---------2-----2----
e---0-------0-----------0-----0-------
Waiting for a path to be clear 




     D             E

E-------------------0------------------
A--0-----------------2-------2---------
D----0---------0------2----2-----------
G-----2------2---------1-1-------------
B-------3--3-----------0-0-------------
e-(12)----2--2-------------------------
I can hear a sweet 


   A              Bm
E-------------------------------------
A-----0-----------------2--------------
D---2-------2---------2-4-----4-------
G-------2----------2--------4-----4---
B------2---------2--------3-----3-----
e---0-------0-----------2-----2-------
melody beneath it all and it says



    D            E
E-------------------0------------------
A--0-----------------2-------2---------
D----0---------0------2----2-----------
G-----2------2---------1-1-------------
B-------3--3-----------0-0-------------
e-(12)----2--2-------------------------
“Brave Dreamer, dream



     A           Bm
E-------------------------------------
A-----0-------------------------------
D---2-------2---------2-4-----4-------
G-------2----------2--------4-----4---
B------2---------2--------3-----3-----
e---0-------0-----------2-----2-------
anew And you won’t always dream by your



     A          Bm

E-------------------------------------
A-----0-----------------2---------2---
D---2-------2---------2-4-----4-------
G-------2----------2--------4-----4---
B------2---------2--------3-----3-----
e---0-------0-----------2-----2-------
self You won’t dream by your


    E

E--0------------------
A----2-------2---------
D-----2----2-----------
G------1-1-------------
B------0-0-------------
e----------------------
self Everybody’s gonna sing 




E-------------------------------------
A-----0----------0--------0-----------
D---2-------2-----2-----2--2------2---
G-------2----------2---2----2---2-----
B------2------------2--------2--------
e---0---------------------------------
along” 



E-------------------------------------
A-----0-------------------------------
D---2-------2---------2-0-----0-------
G-------2----------2--------2-----2---
B------2---------2---------2-----2----
e---0-------0-----------0-----0-------
Loneliness has bit my heart 




E-------------------------------------
A-----0-------------------------------
D---2-------2---------2-0-----0-------
G-------2----------2--------2-----2---
B------2---------2---------2-----2----
e---0-------0-----------0-----0-------
I know its wounded your heart, too 




E-------------------------------------
A-----0-------------------------------
D---2-------2---------2-0-----0-------
G-------2----------2--------2-----2---
B------2---------2---------2-----2----
e---0-------0-----------0-----0-------
But our longing is our revolution 




E-------------------------------------
A-----0-------------------------------
D---2-------2---------2-0-----0-------
G-------2----------2--------2-----2---
B------2---------2---------2-----2----
e---0-------0-----------0-----0-------
It’s gonna bring a world anew 






E-------------------0------------------
A--0-----------------2-------2---------
D----0---------0------2----2-----------
G-----2------2---------1-1-------------
B-------3--3-----------0-0-------------
e-(12)----2--2-------------------------

I can hear a sweet 



E-------------------------------------
A-----0---------------------2-------2---
D---2-------2---------2-4-----4-------
G-------2----------2--------4-----4---
B------2---------2--------3-----3-----
e---0-------0-----------2-----2-------
melody beneath it all and it says



E-------------------0------------------
A--0-----------------2-------2---------
D----0---------0------2----2-----------
G-----2------2---------1-1-------------
B-------3--3-----------0-0-------------
e-(12)----2--2-------------------------
“Brave Dreamer, dream






E-------------------------------------
A-----0----------------------2------2---
D---2-------2---------2-4-----4-------
G-------2----------2--------4-----4---
B------2---------2--------3-----3-----
e---0-------0-----------2-----2-------
anew And you won’t always dream by your



E-------------------------------------
A-----0----------------2--------2-----
D---2-------2---------2-4-----4-------
G-------2----------2--------4-----4---
B------2---------2--------3-----3-----
e---0-------0-----------2-----2-------
self You won’t dream by your




E--0------------------
A----2-------2---------
D-----2----2-----------
G------1-1-------------
B------0-0-------------
e----------------------
self Everybody’s gonna sing 

(STRUM) A

E--------------------
A---0---0----0---0---
D---2---2----2---2---
G---2---2----2---2---
B---2---2----2---2---
e---0---0----0---0---
along” 




      Bm          E

E----------------0-----------0--------
A--2----2----2-----2-------2------2---
D-----4----4--------2-----2-----------
G-------4------------1--1------1------
B-----3------3------0-----------------
e--2----------------------------------
Is it possible? 

      Bm         E

E----------------0-----------0--------
A--2----2----2-----2-------2------2---
D-----4----4--------2-----2-----------
G-------4------------1--1------1------
B-----3------3------0-----------------
e--2----------------------------------
Is it possible? 


Bm               E

E----------------0-----------0--------
A--2----2----2-----2-------2------2---
D-----4----4--------2-----2-----------
G-------4------------1--1------1------
B-----3------3------0-----------------
e--2----------------------------------
Is it possible? 



I can hear a sweet melody beneath it all 
And it says “Be brave Dreamer, dream anew 
And you won’t always dream by yourself 
No, you won’t dream by yourself 
No, you won’t dream by yourself 
Everybody’s gonna sing along