Jump to: navigation, search

Emily (tabs)

Lyrics & Info

Tabs

Performances (18)

Emily
Tabbed byLindawmm
TuningStandard
CapoNone

Here are the tabs to Emily. I figured them out by watching a video recording she did of it during an interview. They are about 99% correct. The only parts I question is on the chorus where it goes 3/2 3/2 3/2 3/2 2/2 2/2 2/2 2/2 0/5 0/5 0/5 0/5 0/2 0/2 0/2 0/2 -- the 0/2 is what I'm not sure of. Also the on the part where she sings Emily, the 3/2 2/2 run is correct but there might be something before it. Regardless, it's so close that no one else will notice but you.

VERSE:
---------------------------------------------------------------------------------
---------------------------------------------------------------------------------
---------------------------------------------------------------------------------
--2-----2-----2--- 2----2----2----2---2---2---2----2---2----0----0---0---0--
3-----3-----3----3----2----2----2--- 2---0---0---0----0-----------------------
--------------------------------------------------------------3----3---3---3----
Woke up to find I lost my mind
Lost heart, lost nerve I lost my favorite word

---------------------------------------------------------
---------------------------------------------------------
---------------------------------------------------------
------2-----2-----2-----2-----2----2-----2----2-------
--3-----3-----3------3-----2----2----2-----2----------
---------------------------------------------------------
Emily

---------------------------------------------------------------------------------
---------------------------------------------------------------------------------
---------------------------------------------------------------------------------
--2-----2-----2--- 2----2----2----2---2---2---2----2---2----0----0---0---0--
3-----3-----3----3----2----2----2--- 2---0---0---0----0-----------------------
--------------------------------------------------------------3----3---3---3----
(play pattern once for each two lines )
I take my cigarettes, I give em a smoke
Oh, God my heart feels broke
I lost something it seems,
I lost my favorite thing

---------------------------------------------------------
---------------------------------------------------------
---------------------------------------------------------
------2-----2-----2-----2-----2----2-----2----2----
--3-----3-----3------3-----2----2----2-----2-------
---------------------------------------------------------
Emily

CHORUS:
-----------------------------------------------------------------------------
-----------------------------------------------------------------------------
----2---2---2---2-----1---1---1---1----5---5---5---5----2---2---2---2--
--3---3---3---3-----2---2---2---2-----------------------------------------
---------------------------------------0----0---0---0---0---0---0---0-----
-----------------------------------------------------------------------------
Where does love go when it can't find a home
One moment here then gone with no forwarding address

---------------------------------------------------------------------------------
---------------------------------------------------------------------------------
---------------------------------------------------------------------------------
-----0---0---0--0---0---0---0---0--------2--- 2---2----2----0---0---0---0---
------------------------------------------0----0---0----0----------------------
--3---3---3--3---3---3---3---3-----------------------------3---3---3---3----

Love no longer has a house or residents in flesh

VERSE:
---------------------------------------------------------------------------------
---------------------------------------------------------------------------------
---------------------------------------------------------------------------------
--2-----2-----2--- 2----2----2----2---2---2---2----2---2----0----0---0---0--
3-----3-----3----3----2----2----2--- 2---0---0---0----0-----------------------
--------------------------------------------------------------3----3---3---3----
(play pattern once for each two lines )
I take the keys, get in the car
to outrun this man I'd have to go real far
where mercy wears lace and bottles are thieves
which of these took you from me

---------------------------------------------------------
---------------------------------------------------------
---------------------------------------------------------
------2-----2-----2-----2-----2----2-----2----2----
--3-----3-----3------3-----2----2----2-----2-------
---------------------------------------------------------
Emily

---------------------------------------------------------------------------------
---------------------------------------------------------------------------------
---------------------------------------------------------------------------------
--2-----2-----2--- 2----2----2----2---2---2---2----2---2----0----0---0---0--
3-----3-----3----3----2----2----2--- 2---0---0---0----0-----------------------
--------------------------------------------------------------3----3---3---3----
(play pattern once for each two lines )
I face myself but there's this draft inside
Parts of me are drowned in perpetual tide
I want to call names, I want to throw things around
But no bar can buy forgiveness, another round for

---------------------------------------------------------
---------------------------------------------------------
---------------------------------------------------------
------2-----2-----2-----2-----2----2-----2----2----
--3-----3-----3------3-----2----2----2-----2-------
---------------------------------------------------------
Emily

REPEAT CHORUS

VERSE:

---------------------------------------------------------------------------------
---------------------------------------------------------------------------------
---------------------------------------------------------------------------------
--2-----2-----2--- 2----2----2----2---2---2---2----2---2----0----0---0---0--
3-----3-----3----3----2----2----2--- 2---0---0---0----0-----------------------
--------------------------------------------------------------3----3---3---3----
(play the once pattern for each two lines)
I go in the bedroom turn on the light
It's like an empty altar no angel in sight
Religion with no temple no place to take my worship to
No God for my eyes to see no fruit to place at the feet of

---------------------------------------------------------
---------------------------------------------------------
---------------------------------------------------------
------2-----2-----2-----2-----2----2-----2----2----
--3-----3-----3------3-----2----2----2-----2-------
---------------------------------------------------------
Emily


------------------------------------------------------------------------------------
------------------------------------------------------------------------------------
------------------------------------------------------------------------------------
------2-----2-----2-----2-----2----2-----2----2------0----0------0------0--
--3-----3-----3------3-----2----2----2-----2----------------------------------
------------------------------------------------------3------3-----3------3------

Gone, Gone (pattern above is for each word 'gone'

Here is another way to play it, just on the top two strings (capo 1st fret)

VERSE:
----------------------------------------------------------------------------
---------------------------------------------------------------------------------
---------------------------------------------------------------------------------
---------------------------------------------------------------------------------
--6-----6-----6--- 6----6----6----6---6---6---6----6---6----4----4---4---4--
7-----7-----7----7----6----6----6--- 6---4---4---4----4---2---2---2----2------

Woke up to find I lost my mind

Lost heart, lost nerve I lost my favorite word

Emily

----------------------------------------------------------------------------
---------------------------------------------------------------------------------
---------------------------------------------------------------------------------
---------------------------------------------------------------------------------
--6-----6-----6--- 6----6----6----6---6---6---6----6---6----4----4---4---4--
7-----7-----7----7----6----6----6--- 6---4---4---4----4---2---2---2----2------

I take my cigarettes, I give em a smoke Oh, God my heart feels broke

I lost something it seems,I lost my favorite thing

Emily

CHORUS:
----------------------------------------------------------------------------
-----------------------------------------------------------------------------
-----------------------------------------------------------------------------
-----------------------------------------------------------------------------
----11---11---11---11---6---6---6---6----6---6---6---6----2---2---2---2--
--12---12---12---12---6---6---6---6----4---4---4---4----0---0---0---0------

Where does love go when it can't find a home

One moment here then gone with no forwarding address

----------------------------------------------------------------------------------
----------------------------------------------------------------------------------
----------------------------------------------------------------------------------
----------------------------------------------------------------------------------
----4---4---4---4---4---4---4---4----2---2---2---2---4---4---4---4---6---6---6---6-
--2---2---2---2---2---2---2---2----0---0---0---0---0---0---0---0---0---0---0---0--

Love no longer has a house or residents in flesh

VERSE:
----------------------------------------------------------------------------
---------------------------------------------------------------------------------
---------------------------------------------------------------------------------
---------------------------------------------------------------------------------
--6-----6-----6--- 6----6----6----6---6---6---6----6---6----4----4---4---4--
7-----7-----7----7----6----6----6--- 6---4---4---4----4---2---2---2----2------

I take the keys, get in the car,to outrun this man I'd have to go real far

where mercy wears lace, and bottles are thieves, which of these took you from me

Emily
----------------------------------------------------------------------------
---------------------------------------------------------------------------------
---------------------------------------------------------------------------------
---------------------------------------------------------------------------------
--6-----6-----6--- 6----6----6----6---6---6---6----6---6----4----4---4---4--
7-----7-----7----7----6----6----6--- 6---4---4---4----4---2---2---2----2------

I face myself but there's this draft inside, Parts of me are drowned in perpetual tide

I want to call names, I want to throw things around But no bar can buy forgiveness, another round for

Emily

CHORUS:
----------------------------------------------------------------------------
-----------------------------------------------------------------------------
-----------------------------------------------------------------------------
-----------------------------------------------------------------------------
----11---11---11---11---6---6---6---6----6---6---6---6----2---2---2---2--
--12---12---12---12---6---6---6---6----4---4---4---4----0---0---0---0------

Where does love go when it can't find a home

One moment here then gone with no forwarding address

----------------------------------------------------------------------------------
----------------------------------------------------------------------------------
----------------------------------------------------------------------------------
----------------------------------------------------------------------------------
----4---4---4---4---4---4---4---4----2---2---2---2---4---4---4---4---6---6---6---6-
--2---2---2---2---2---2---2---2----0---0---0---0---0---0---0---0---0---0---0---0--

Love no longer has a house or residents in flesh

VERSE:

----------------------------------------------------------------------------
---------------------------------------------------------------------------------
---------------------------------------------------------------------------------
---------------------------------------------------------------------------------
--6-----6-----6--- 6----6----6----6---6---6---6----6---6----4----4---4---4--
7-----7-----7----7----6----6----6--- 6---4---4---4----4---2---2---2----2------

I go in the bedroom turn on the light,It's like an empty altar no angel in sight

Religion with no temple no place to take my worship to, No God for my eyes to see no     fruit to place at the feet of

Emily


----------------------------------------------------------------------------
---------------------------------------------------------------------------------
---------------------------------------------------------------------------------
---------------------------------------------------------------------------------
--6-----6-----6--- 6----6----6----6---6---6---6----6---6----4----4---4---4--
7-----7-----7----7----6----6----6--- 6---4---4---4----4---2---2---2----2------

Gone 

Gone

Emily