Jump to: navigation, search

Feel Like Celebrating (tabs)

Lyrics & Info

Tabs

Performances (2)

Feel Like Celebrating
Tabbed byJessica
TuningDADF#AD
CapoNone
TUNING: DADF#ab (Open D)










d--0--------0--------0--------0--------0--------0--------0--------0-------
A--------5--------5--------5--------5--------4--------4--------4----------
F#------------------------------------------------------------------------
D-----0--------0--------0--------0---------0-------0--------0--------0----
A--5--------5--------5--------5--------4--------4--------4--------4-------
D-------------------------------------------------------------------------

   Do      not       think    it      hurts     me        bad
It doesn't            hurt me         none
It does              not      mean    anything
I'm fondling this                     gun 



d--7--------5--------5--------5--------4--------
A--------7--------5--------5--------5--------4--
F#----7--------5--------5--------5---------4----
D--7--------5--------5--------5--------4--------
A-----------------------------------------------
D-----------------------------------------------

  I don't hurt bad And I don't miss you
  I don't eat alone Wishing I was eating with two 
  It's like a sick movie They always get high ratings In fact,



d--------------------------------------------------------------------------
A--5--------4--------2--------4--------5--------4--------2--------4--------
F#-------0--------0--------0--------0--------0--------0--------0--------0--
D-----0--------0--------0--------0---------0-------0--------0--------0-----
A--5--------4--------2--------4--------5--------4--------2--------4---------
D---------------------------------------------------------------------------

I feel      like             celebrating
I feel      like             celebrating 



(Second verse, same as the first!)

...........................


d--7--------5--------4--------0--------7--------5--------4--------4-------
A--------0--------0--------0--------0--------0--------0--------0--------0-
F#----0--------0--------0--------0--------0--------0--------0--------0----
D--0--------0--------0--------0--------0--------0--------0--------0-------
A-------------------------------------------------------------------------
D-------------------------------------------------------------------------
  Oh        goody! Oh         joy!     I am      finally free
I no longer have to sit through  Your mother's casserole recipes


   X4                              End on: 
d--------------------------------------5*-------
A--5p0---------------------------------5*-------
F#-----5p0-----------------------------5*-------
D----------5p0-------------------------5*-------
A--------------5p0---------------------5*-------
D-----------------------------------------------

   Oh joy! Glee! 
   I am finally free