Jump to: navigation, search

Flower (tabs)

Lyrics & Info

Tabs

Performances (5)

Flower
Tabbed byJessica
TuningStandard
CapoNone
INTRO:

e-------3-------------3-------------3------------------3-------
B---3-----3---3---2-----2---2---1-----1---1----1h0-------0---0-
G-----0-----0-------0-----0-------0-----0----------0-------0---
D----------------------------------------------------0---------
A--------------------------------------------------------------
E-3-------------3-------------3-------------3------------------
  She dreams of the country Her eyes go far     away


e-------3-------------3-------------3------------------3-------
B---3-----3---3---2-----2---2---1-----1---1----1h0-------0---0-
G-----0-----0-------0-----0-------0-----0----------0-------0---
D----------------------------------------------------0---------
A--------------------------------------------------------------
E-3-------------3-------------3-------------3------------------
  She wishes for flowers He says, "Perhaps in   May"



e-------3-------------3-------------3------------------3-------
B---3-----3---3---2-----2---2---1-----1---1----1h0-------0---0-
G-----0-----0-------0-----0-------0-----0----------0-------0---
D----------------------------------------------------0---------
A--------------------------------------------------------------
E-3-------------3-------------3-------------3------------------
  The city always was gray The reflections of his eyes


e-------3-------------3-------------3------------------3-------
B---3-----3---3---2-----2---2---1-----1---1----1h0-------0---0-
G-----0-----0-------0-----0-------0-----0----------0-------0---
D----------------------------------------------------0---------
A--------------------------------------------------------------
E-3-------------3-------------3-------------3------------------
  And she knows he liked it that way And that way he shall die, well

G            C9
She's always known
G                   C9
There was something more
G                          C9 
There's this hunger in her bellY Like an instinct
   G                      C9
It tells her that there's something more

D                     C              
This living shouldn't be called living
         G 
Cuz it's really only half a life
         D                        C
She's a flower that grows despite cement walls
             G  D  C           G  D  C
And she will survive, she will survive