Jump to: navigation, search

Fragile Heart (II) (tabs)

Lyrics & Info

Tabs

Performances (13)

Fragile Heart (II)
Tabbed byJessica
TuningStandard
CapoNone
INTRO:
  D                          G

e-2-----2-----0h2-----2------3------3------5---3---
B---3-----3-------3-----3------3------3------0---0-
G-----2-----2-------2-----2------0------0--0---0---
D-0-----------0------------------------------------
A--------------------------------------------------
E----------------------------3---------------------

  D                          G

e-2-----2-----0h2-----2------3------3------5---3---
B---3-----3-------3-----3------3------3------0---0-
G-----2-----2-------2-----2------0------0--0---0---
D-0-----------0------------------------------------
A--------------------------------------------------
E----------------------------3---------------------
You better take your watch off

  D                          G

e-2-----2-----0h2-----2------3------3------5---3---
B---3-----3-------3-----3------3------3------0---0-
G-----2-----2-------2-----2------0------0--0---0---
D-0-----------0------------------------------------
A--------------------------------------------------
E----------------------------3---------------------
When around large machinery

  D                          G

e-2-----2-----0h2-----2------3------3------5---3---
B---3-----3-------3-----3------3------3------0---0-
G-----2-----2-------2-----2------0------0--0---0---
D-0-----------0------------------------------------
A--------------------------------------------------
E----------------------------3---------------------
You better hide your wallet

  D                          G

e-2-----2-----0h2-----2------3------3------5---3---
B---3-----3-------3-----3------3------3------0---0-
G-----2-----2-------2-----2------0------0--0---0---
D-0-----------0------------------------------------
A--------------------------------------------------
E----------------------------3---------------------
If you plan to sleep with thieves

  D                          G

e-2-----2-----0h2-----2------3------3------5---3---
B---3-----3-------3-----3------3------3------0---0-
G-----2-----2-------2-----2------0------0--0---0---
D-0-----------0------------------------------------
A--------------------------------------------------
E----------------------------3---------------------
Don´t forget your bullet-proof vest

  D                          G

e-2-----2-----0h2-----2------3------3------5---3---
B---3-----3-------3-----3------3------3------0---0-
G-----2-----2-------2-----2------0------0--0---0---
D-0-----------0------------------------------------
A--------------------------------------------------
E----------------------------3---------------------
The next time you pick a fight with a guard

  D                          G

e-2-----2-----0h2-----2------3------3------5---3---
B---3-----3-------3-----3------3------3------0---0-
G-----2-----2-------2-----2------0------0--0---0---
D-0-----------0------------------------------------
A--------------------------------------------------
E----------------------------3---------------------
And if you work with unstable objects

  D                          G

e-2-----2-----0h2-----2------3------3------5---3---
B---3-----3-------3-----3------3------3------0---0-
G-----2-----2-------2-----2------0------0--0---0---
D-0-----------0------------------------------------
A--------------------------------------------------
E----------------------------3---------------------
Wear a hat that´s hard

  C           G           D

e-------------------3-----2-----2------0h2-----2-----
B-1-----1-----3-------3-----3-----3--------3-----3---
G---0-----0-----0-------0-----2-----2--------2-----2-
D-----2-----2-----0-------0------------0-------------
A-3--------------------------------------------------
E-------------3--------------------------------------
It´s simple tips like these

  C           G           D

e-------------------3-----2-----2------0h2-----2-----
B-1-----1-----3-------3-----3-----3--------3-----3---
G---0-----0-----0-------0-----2-----2--------2-----2-
D-----2-----2-----0-------0------------0-------------
A-3--------------------------------------------------
E-------------3--------------------------------------
That keep you safe from injuries

  Em                          G

e---------------------------------------------------
B-0------0------0------0------3-----3-------3-----3-
G------0---0---------0---0--------3---3---3---3-----
D---2--------2-----2-------2----0-------0-------0---
A-----------------------------------2-------------2-
E-0------0------0------0------3-------------3-------
The surgeon general should do his part:

  Em                          G

e---------------------------------------------------
B-0------0------0------0------3-----3-------3-----3-
G------0---0---------0---0--------3---3---3---3-----
D---2--------2-----2-------2----0-------0-------0---
A-----------------------------------2-------------2-
E-0------0------0------0------3-------------3-------
Warning, beware, be careful - Fragile 
  D                          G

e-2-----2-----0h2-----2------3------3------5---3---
B---3-----3-------3-----3------3------3------0---0-
G-----2-----2-------2-----2------0------0--0---0---
D-0-----------0------------------------------------
A--------------------------------------------------
E----------------------------3---------------------
Heart