Jump to: navigation, search

Get Ready Boy (tabs)

Lyrics & Info

Tabs

Performances (6)

Get Ready Boy
Tabbed byJessica
TuningStandard
Capo2nd Fret
INTRO: 

   G  X   2                         
e----------0-----------------------
B-3------------3-0-----------------
G------0--------------0--2h0----0--
D----0-------0------0---------0----
A----------------------------------
E-3------3-------3-------3---------

VERSE (typ.)

   G                       
e----------0-----------------------
B-3------------3-0-----------------
G------0--------------0--2h0----0--
D----0-------0------0---------0----
A----------------------------------
E-3------3-------3-------3---------
In the absence of daylight I

   G                       
e----------0-----------------------
B-3------------3-0-----------------
G------0--------------0--2h0----0--
D----0-------0------0---------0----
A----------------------------------
E-3------3-------3-------3---------
try to find my time

   G    x    2                
e----------0-----------------------
B-3------------3-0-----------------
G------0--------------0--2h0----0--
D----0-------0------0---------0----
A----------------------------------
E-3------3-------3-------3---------
It's never on my wrist but it's always in my mind


   C9   x    2                
e----------0-----------------------
B-3------------3-0-----------------
G------0--------------0--2h0----0--
D----0-------0------0---------0----
A-3------3-------3-------3---------
E----------------------------------
In every great romance there's a dragon to be slayed 

  C9
e-3--------3-------2--------2-------0--------0---------------------
B-----0---------0-------0--------0------0--------0--3------3--1--0-
G---0---------0-------0--------0------0--------0--------0----------
D------------------------------------------------------------------
A-3-----3----------3------3---------3-----3---------3--------------
E------------------------------------------------------------------
This is ours, I hope that you see it this 


  Em9
e-3--------3-------2--------2-------0--------0---------------------
B-----0---------0-------0--------0------0--------0--3------3--1--0-
G---0---------0-------0--------0------0--------0--------0----------
D------------------------------------------------------------------
A------------------------------------------------------------------
E-0-----0----------0------0---------0-----0---------0--------------
way 



  Am             C/B               C 
e----------0----------------0------0---------0-------0---------0------
B-1------------1--1-------------1-------1---------1-------1---------1-
D-----2----------------0--------------0---------0-------0---------0---
G---2--------2-------0--------0---------------------------------------
A-0------0--------2-------2--------3-------3---------3-------3--------
E---------------------------------------------------------------------
I'm gonna love you with all I got 


  Am             C/B               C 
e----------0----------------0------0---------0-------0---------0------
B-1------------1--1-------------1-------1---------1-------1---------1-
D-----2----------------0--------------0---------0-------0---------0---
G---2--------2-------0--------0---------------------------------------
A-0------0--------2-------2--------3-------3---------3-------3--------
E---------------------------------------------------------------------
So get ready, steady yourself, cause it's a 

   G  X   2                         
e----------0-----------------------
B-3------------3-0-----------------
G------0--------------0--2h0----0--
D----0-------0------0---------0----
A----------------------------------
E-3------3-------3-------3---------

lot 

VERSE:

   G                             
Love is great, yeah, love is grand, 
But it's hard, and it's cruel It's rough to understand
  C9
But I'm tougher than most Gonna show you what I mean 
          C9 etc
I'm gonna love you so hard Gonna make you come undone at the 
Em etc
seams 

CHORUS: 

                     Am C/B           C
I'm gonna pounce on you with all I've got 
       Am   C/B           C
So get ready, steady yourself, cause it's a lot 

BRIDGE: 

  Em               G/F#        
e----------0-----------------0-------
B-0------------0---0--------------0--
G-----0-----------------0------------
D---2--------2--------0--------0-----
A------------------------------------
E-0------0---------2-------2---------
Love's not for the faint of heart Who 

  G                D        
e----------0-----------------0-------
B-0------------0---3--------------3--
G-----0-----------------2------------
D---0--------0--------0--------0-----
A------------------0-------0---------
E-3------3---------------------------
crack with the first resistance 

  Em               G/F#        
e----------0-----------------0-------
B-0------------0---0--------------0--
G-----0-----------------0------------
D---2--------2--------0--------0-----
A------------------------------------
E-0------0---------2-------2---------
Love takes teeth and guts and grease

  G                A        
e----------0-----------------0-----------------0-------
B-0------------0---2--------------2--3--------------3--
G-----0-----------------2-----------------2------------
D---0--------0--------0--------0--------0--------0-----
A------------------0-------0---------0-------0---------
E-3------3---------------------------------------------
 to go the distance,     

 A        
e-----------0-----------------0-------
B-2--------------2--0--------------0--
G------2-----------------2------------
D----0--------0--------0--------0-----
A-0-------0---------0-------0---------
E-------------------------------------
  So you

LIKE CHORUS:
Am         C/B    C
Better get ready, boy, you 
Am         C/B    C
Better get ready, boy, you 
Am               C/B                         C
Better get ready, boy, you better get ready, boy, 
I'm gonna give you all I 
got                                       And it's a 

   G  X   2                         
e----------0-----------------------
B-3------------3-0-----------------
G------0--------------0--2h0----0--
D----0-------0------0---------0----
A----------------------------------
E-3------3-------3-------3--------- END ON (A7sus4=300230)

lot