Jump to: navigation, search

Gloria (tabs)

Lyrics & Info

Tabs

Performances (0)

Gloria
Tabbed byJessica
TuningStandard
CapoNone
INTRO:

e--5--3--7--2--------2------
B--5--------3------3----*7--
G--0--------2----2------*7--
D--0--------0--0--------*7--
A--0--------0---------------
E---------------------------

*HARMONIC

 A      D                          A       D

e-5-----2------2------2------2-----5--3--7-2-----2-----5-3-7-
B-5-------3------3------3------3---5---------3-----3---5-----
G-0---------2------2------2------2-0-----------2-----2-0-----
D-0-----0-------------0------0-------------0-----------------
A------------------------------------------------------------
E------------------------------------------------------------
Gl-or-i-a                          in excels -   is     De -      

  Bm x 3         Am x 3        Gm x 3       

e-7------7-------5------5-------3-----3-----
B---7------7-------5------5-------3-----3---
G-----7------7-------5------5-------3-----3-
D-------------------------------------------
A-9------9-------7------7-------5-----5-----
E-------------------------------------------
  o  laudamus    te  Kyr -i- e  e - lei -    


 F#m            A            B                 

e-2-----2-------0-----0------------------0------2-----
B---2-----2-------2-----2----4-----4-------4------4---
G-----2-----2-------2-----2----4-----4-------4------4-
D---------------0----------------4-----4--------------
A--4-----4-------------------2-----2------------------
E-----------------------------------------------------
  s -  o   - n                ag -   nus  De -  i 

  Em/G                         G                           D x 2

e---------3-----------3---------------3-------------3-------------2------------------
B-----------0-----------0---------------0-------------0-------------3----------3-----
G------0------0-----0-----0--------0------0------0------0------2------2------2---2---
D----2------------2---------0----0-------------0-------------0-------------0-------0-
A--2------------2--------------2-------------2-------------0-------------0-----------
E------------------------------------------------------------------------------------
  gl   -  o         -          r    -         i      -     a 

PLAY THESE CHORDS IN ABOVE PATTERN FOR THE BRIDGE:

Bm    A    G     F#m  

PLAYED ABOVE VERSE:


Gloria in excelsis Deo 
Christe eleison 
laudamus te 
agnus Dei 
gloria 


[PLAY CHORDS IN SAME PATTERN AS "Gl - o - r - i - a")

Bm    A    G     F#m            Bm    D
Cru - ci - fix - us  et resur - rex - it 

G    F#m  A   B
dona no - bis pacem 


[PLAYED AS ABOVE]
gloria 

Gloria in excelsis Deo 
laudamus te 
Kyrie eleison 
agnus Dei 
gloria 

Gloria in excelsis Deo 
Christe eleison 
laudamus te 
agnus Dei 
gloria 

Crucifixus et resurrexit 
dona nobis pacem 
gloria