Jump to: navigation, search

Here When Gone (tabs)

Lyrics & Info

Tabs

Performances (56)

Here When Gone
Tabbed bySebastien
TuningStandard
CapoNone
Intro:
---------0--------------0--------------0---------------0------
-----1------1-------1-------1------1-------1-------1-------1--
-2--------------2--------------0---------------0--------------
--------------------------------------------------------------
--------------------------------------------------------------

----------0----------------0---------------0----------------
------1--------1------1---------1-------1----1--------------
------------------------------------------------------------
-3----------------3-----------------3------------2---0------
------------------------------------------------------------

This pattern is used in all three verses.  It is also used as an intro/outro


the chorus is :

C       G         Am                     Am/B Am/C
You are here when gone  you're here when gone

C       G         Am
You are here when gone

        C         G           Am
And you memory is haunting my skin

C       G         Am
You are here when gone, you're here when gone

Then play the intro again as an outro, Thats it =)

luv,
Sebastien (The Original Yodeling Swiss Angel) :P
{\o/}
 /_\