Jump to: navigation, search

Hotel Angel (Moon Over Austin) (tabs)

Lyrics & Info

Tabs

Performances (4)

Hotel Angel (Moon Over Austin)
Tabbed byBreAnn S
TuningStandard
CapoNone
Moon Over Austin (Hotel Angel) by Jewel
Tabbed by BreAnn S.

Standard Tuning, no capo, 6/8 time,Dotted Quarter Note = ~80 
				     (metronomeonline.com)

Chords:  Aadd9 = X77600   CMaj13 = X33200   C = X32010
	      Em = 022000   G = 320033   D = X00232  
                   Am = X02210   Asus2 = X02200

Notes:	-The whole song has a picking pattern like this:

	   Aadd9   
	E ------------0-----------------0-------------
	B ---------0-----0-----------0-----0----------
	G ------6-----------6-----6-----------6-------
	D ---7-----------------7----------------------
	A --------------------------------------------
	E --------------------------------------------

	-Chords are most often played twice
	-Guitar part is divided up into three sections:
	 Verse, Pre-Chorus, & Chorus... when they repeat
	 they are played the same as the 1st time

Intro: Aadd9   CMaj13   Aadd9   CMaj13

Verse 1:

Aadd9              CMaj13
     Sweet man, sweet mystery
Aadd9        CMaj13
     Unveil yourself to me
Aadd9            CMaj13
     Sweet soul, lie so still
Aadd9                CMaj13
     Flesh cup, gonna get my fill

Pre-Chorus:

C                  Em
  Let me rise and fall
C                       Em
  With the wings of your sheets

Chorus:

           G      D         Am    Asus2
While the moon's full over Austin
G         D        Am   Asus2
  The city sleeps below
G           D       Am        Asus2
  Only the moon bears witness
       G      D                Am    Am  Asus2 Asus2
To my hotel angel through the window

Verse 2:  
Your body be a tender vine
That twists and turns just like mine
Your heart a slender thong
Built of honey, filled with song

Pre-Chorus:  
'Til dawn steals you from me
And takes you to the next town

Chorus:  
But tonight the moon's full over Austin
And beggars starve below (/city sleeps below)
And only the moon bears witness
To my hotel angel through the window

Bridge:		   --------------------------------3-------
	           --------3---------3----------3-----3----
	           -----0---------0----------0-----------0-
	           ----------------------------------------
	           --3---------2---------------------------
C   D 	           ----------------------3-----------------
       There's one thing that keeps me going

		   --------------------------------3-------
	           --------3---------3----------3-----3----
	           -----0---------0----------0-----------0-
	           ----------------------------------------
	           --3---------2---------------------------
         D         ----------------------3-----------------
           It's the slow and easy     knowing

		   --------------------------------3-------
	           --------3---------3----------3-----3----
	           -----0---------0----------0-----------0-
	           ----------------------------------------
	           --3---------2---------------------------
         D         ----------------------3-----------------
           You're the         kind  of  man
       C                                 D
Whose kind of girl could maybe give her hand

Verse 3:
So sweet man in your sweet misery
Lie upon my temporary sea
Love's dressing, I will adorn
To my side your absence be thorn

Pre-Chorus:
And I'll rock you gently to sleep
Tonight is one promise we both can keep

Last Chorus:
While the moon's full over Austin
And the thieves all lie below (/city sleeps below)
And only the moon bears witness
To my hotel angel through the window

Tag:
 G      D                 Am   Asus2   Am   Asus2
Hotel Angel through the window