Jump to: navigation, search

I'm Sensitive (tabs)

Lyrics & Info

Tabs

Performances (89)

I'm Sensitive
Tabbed byJessica
TuningStandard
CapoNone
Tune your guitar down 1/2 step to match Pieces of You version exactly.  

Keep it in standard and capo the second fret for a common mid-90's live version.

I'm tabbing it in standard EADGBe tuning.  


  C9                      


e-------3--3-------3--3--------3--3------3--3---
B-------1--1-------1--1--------1--1------1--1---
G-------0--0-------0--0--------0--0------0--0---
D-----------------------------------------------
A-3--3--------3--3-------3--3--------3--3-------
E-----------------------------------------------

I was thinking that I might 

  G/C


e-------3--3-------3--3--------3--3-------3--3--
B-------1--1-------1--1--------1--1-------1--1--
G-------0--0-------0--0--------0--0-------0--0--
D-----------------------------------------------
A-2--2--------2--2-------2--2--------2--2-------
E-----------------------------------------------

fly today 

  C9                      


e-------3--3-------3--3--------3--3------3--3---
B-------1--1-------1--1--------1--1------1--1---
G-------0--0-------0--0--------0--0------0--0---
D-----------------------------------------------
A-3--3--------3--3-------3--3--------3--3-------
E-----------------------------------------------

Just to disprove all the things 

  G/C


e-------3--3-------3--3--------3--3-------3--3--
B-------1--1-------1--1--------1--1-------1--1--
G-------0--0-------0--0--------0--0-------0--0--
D-----------------------------------------------
A-2--2--------2--2-------2--2--------2--2-------
E-----------------------------------------------

that you say 


  F                     G


e-------1--1-------1--1--------3--3-------3--3--
B-------1--1-------1--1--------3--3-------3--3--
G-------2--2-------2--2--------0--0-------0--0--
D-----------------------------------------------
A-3--3--------3--3------------------------------
E------------------------3--3--------3--3-------

It doesn't take a talent to be mean 

  F                     G


e-------1--1-------1--1--------3--3-------3--3--
B-------1--1-------1--1--------3--3-------3--3--
G-------2--2-------2--2--------0--0-------0--0--
D-----------------------------------------------
A-3--3--------3--3------------------------------
E------------------------3--3--------3--3-------

Your words can crush things that are unseen 

  C           G/C         Am                      


e-----------------------------------------------
B-------1--1-------1--1--------1--1------1--1---
G-------0--0-------0--0--------2--2------2--2---
D-------2--2-------2--2--------2--2------2--2---
A-3--3--------2--2-------0--0-------0--0--------
E-----------------------------------------------

So please be careful with me, I'm 


  F                     G


e-------1--1-------1--1--------3--3-------3--3--
B-------1--1-------1--1--------3--3-------3--3--
G-------2--2-------2--2--------0--0-------0--0--
D-----------------------------------------------
A-3--3--------3--3------------------------------
E------------------------3--3--------3--3-------

sensitive And I'd like to stay that 


  C9                     G/C             


e-------3--3-------3--3--------3--3------3--3---
B-------1--1-------1--1--------1--1------1--1---
G-------0--0-------0--0--------0--0------0--0---
D-----------------------------------------------
A-3--3--------3--3-------2--2--------2--2-------
E-----------------------------------------------

way 


  C9                      


e-------3--3-------3--3--------3--3------3--3---
B-------1--1-------1--1--------1--1------1--1---
G-------0--0-------0--0--------0--0------0--0---
D-----------------------------------------------
A-3--3--------3--3-------3--3--------3--3-------
E-----------------------------------------------

You always tell me that it's 

  G/C


e-------3--3-------3--3--------3--3-------3--3--
B-------1--1-------1--1--------1--1-------1--1--
G-------0--0-------0--0--------0--0-------0--0--
D-----------------------------------------------
A-2--2--------2--2-------2--2--------2--2-------
E-----------------------------------------------

impossible To 


  C9                      


e-------3--3-------3--3--------3--3------3--3---
B-------1--1-------1--1--------1--1------1--1---
G-------0--0-------0--0--------0--0------0--0---
D-----------------------------------------------
A-3--3--------3--3-------3--3--------3--3-------
E-----------------------------------------------

be respected, and 

  G/C


e-------3--3-------3--3--------3--3-------3--3--
B-------1--1-------1--1--------1--1-------1--1--
G-------0--0-------0--0--------0--0-------0--0--
D-----------------------------------------------
A-2--2--------2--2-------2--2--------2--2-------
E-----------------------------------------------

be a girl 

  F                     G


e-------1--1-------1--1--------3--3-------3--3--
B-------1--1-------1--1--------3--3-------3--3--
G-------2--2-------2--2--------0--0-------0--0--
D-----------------------------------------------
A-3--3--------3--3------------------------------
E------------------------3--3--------3--3-------

Why's it gotta be so    complicated

  F                     G


e-------1--1-------1--1--------3--3-------3--3--
B-------1--1-------1--1--------3--3-------3--3--
G-------2--2-------2--2--------0--0-------0--0--
D-----------------------------------------------
A-3--3--------3--3------------------------------
E------------------------3--3--------3--3-------

Why you gotta tell me    if I'm hated 

  C           G/C         Am                      


e-----------------------------------------------
B-------1--1-------1--1--------1--1------1--1---
G-------0--0-------0--0--------2--2------2--2---
D-------2--2-------2--2--------2--2------2--2---
A-3--3--------2--2-------0--0-------0--0--------
E-----------------------------------------------


Oh please be careful with me, I'm 

  F                     G


e-------1--1-------1--1--------3--3-------3--3--
B-------1--1-------1--1--------3--3-------3--3--
G-------2--2-------2--2--------0--0-------0--0--
D-----------------------------------------------
A-3--3--------3--3------------------------------
E------------------------3--3--------3--3-------

sensitive And I'd like to stay that 

  C9                     G/C             


e-------3--3-------3--3--------3--3------3--3---
B-------1--1-------1--1--------1--1------1--1---
G-------0--0-------0--0--------0--0------0--0---
D-----------------------------------------------
A-3--3--------3--3-------2--2--------2--2-------
E-----------------------------------------------

way 

VERSE:  

I was thinking, that it might do some good 
If we robbed the cynics and took all their food 
That way what they believe will have taken place 
And we'll give it to everybody who has some faith 

CHORUS: 

Oh please be careful with me, I'm sensitive 
And I'd like to stay that way

VERSE:  

I have this theory, that if we're told we're bad 
Then that's the only idea we'll ever have 

  F                     G


e-------1--1-------1--1--------3--3-------3--3--
B-------1--1-------1--1--------3--3-------3--3--
G-------2--2-------2--2--------0--0-------0--0--
D-----------------------------------------------
A-3--3--------3--3------------------------------
E------------------------3--3--------3--3-------

But maybe if we are surrounded in beauty 

  F                     G


e-------1--1-------1--1--------3--3-------3--3--
B-------1--1-------1--1--------3--3-------3--3--
G-------2--2-------2--2--------0--0-------0--0--
D-----------------------------------------------
A-3--3--------3--3------------------------------
E------------------------3--3--------3--3-------

Someday we will become what we see

  F                     G


e-------1--1-------1--1--------3--3-------3--3--
B-------1--1-------1--1--------3--3-------3--3--
G-------2--2-------2--2--------0--0-------0--0--
D-----------------------------------------------
A-3--3--------3--3------------------------------
E------------------------3--3--------3--3-------

'Cause anyone can start a conflict 

  F                     G


e-------1--1-------1--1--------3--3-------3--3--
B-------1--1-------1--1--------3--3-------3--3--
G-------2--2-------2--2--------0--0-------0--0--
D-----------------------------------------------
A-3--3--------3--3------------------------------
E------------------------3--3--------3--3-------

It's harder yet to disregard it 

  F                     G


e-------1--1-------1--1--------3--3-------3--3--
B-------1--1-------1--1--------3--3-------3--3--
G-------2--2-------2--2--------0--0-------0--0--
D-----------------------------------------------
A-3--3--------3--3------------------------------
E------------------------3--3--------3--3-------

I'd rather see the world from another angle



  C           G/C         Am                      


e-----------------------------------------------
B-------1--1-------1--1--------1--1------1--1---
G-------0--0-------0--0--------2--2------2--2---
D-------2--2-------2--2--------2--2------2--2---
A-3--3--------2--2-------0--0-------0--0--------
E-----------------------------------------------

We are Everyday Angels 

  F                     G


e-------1--1-------1--1--------3--3-------3--3--
B-------1--1-------1--1--------3--3-------3--3--
G-------2--2-------2--2--------0--0-------0--0--
D-----------------------------------------------
A-3--3--------3--3------------------------------
E------------------------3--3--------3--3-------

Be careful with me 'cause I'd like to stay that 

  C9                     G/C             


e-------3--3----
B-------1--1----
G-------0--0----
D---------------
A-3--3--------3-
E---------------

way