Jump to: navigation, search

Jupiter (tabs)

Lyrics & Info

Tabs

Performances (56)

Jupiter
Tabbed byBreAnn S
TuningDADEAE
CapoNone
3/4 Time, (Bridge in 6/8) Quarter note = ~44 (metronomeonline.com)

Notes:
	-This song is really easy and fun to play after you get
	 the chords down. 
	-Throughout the song she palm mutes with her strumming,
	 to "swing" the rhythm...listen and you'll get it.
	-The bridge is a different time signature: 6/8 played 
	 straight (no swing).  For ex., when you play the verses,
	 you would count "1 2 3, 1 2 3...", the bridge you would
	 count "123456, 123456" which makes it feel like it's 
	 twice as fast....but it's not really... 
	-In this tab, I tabbed the whole thing, but chords are
	 at the top as well... 

Key:	* = Harmonic

Chords:  Dsus2 = 000500   Dadd9 = 000700   Dadd9sus4 = 555000

	 Esus4 = 777000   Aadd4 = 040500   F#m9 = X44400

	 Eadd9sus4 = X22200   Esus4 = 222000

Intro:   

  Dsus2   Dadd9         Dadd9sus4   
E --0-------0-------0----0----0----0-----------------------------
A --0-------0-------0----0----0----0-----------------------------
E --5-------7-------0----0----0----0-----------------------------
D --0-------0-------5----5----5----5-----------------------------
A --0-------0-------5----5----5----5-----------------------------
D --0-------0-------5----5----5----5-----------------------------

Verse 1: After 2nd & last lines, play Esus4 1 extra time

  Dsus2          Dadd9             Dadd9sus4         Esus4
E --0--------------0------------------0----------------0---------
A --0--------------0------------------0----------------0---------
E --5--------------7------------------0----------------0---------
D --0--------------0------------------5----------------7---------
A --0--------------0------------------5----------------7---------
D --0--------------0------------------5----------------7---------
   Venus    De    Milo  in   her     half-baked      shell
   Understood the nature   of        love         very well, She said,
"A good love is delicious; You can't get enough  too  soon
It makes you  so crazy you want to swallow    the     moon"

Chorus:
     Aadd4  Aadd4   Dadd9sus4       Dadd9sus4     
E -----0------0---------0---------------0------------------------
A -----0------0---------0---------------0------------------------
E -----5------5---------0---------------0------------------------
D -----0------0---------5---------------5------------------------
A -----4------4---------5---------------5------------------------
D -----0------0---------5---------------5------------------------
     Oh-oh, oh-oh,    Jupiter
     Oh-oh, oh-oh, be still my little heart
     Oh-oh, oh-oh,    love   is  a    flame

           Esus4    Esus4    Esus4    Esus4
E -----------0--------0--------0--------0------------------------
A -----------0--------0--------0--------0------------------------
E -----------0--------0--------0--------0------------------------
D -----------7--------7--------7--------7------------------------
A -----------7--------7--------7--------7------------------------
D -----------7--------7--------7--------7------------------------
   Neither timid nor tame,    Take    these...

    Dsus2         Harm.        Dadd9sus4      Dadd9sus4
E ----0-------------5*-------------0--------------0--------------
A ----0-------------5*-------------0--------------0--------------
E ----5-------------5*-------------0--------------0--------------
D ----0-------------5*-------------5--------------5--------------
A ----0-------------5*-------------5--------------5--------------
D ----0-------------5*-------------5--------------5--------------
    stars from my crown; Let the years fall down

        Dsus2       Dsus2        Esus4          Esus4
E --------0-----------0------------0--------------0--------------
A --------0-----------0------------0--------------0--------------
E --------5-----------5------------0--------------0--------------
D --------0-----------0------------7--------------7--------------
A --------0-----------0------------7--------------7--------------
D --------0-----------0------------7--------------7--------------
  Lay me out in firelight; Let my skin feel the night

        Dsus2       Dsus2      Dadd9sus4      Dadd9sus4
E --------0-----------0------------0--------------0--------------
A --------0-----------0------------0--------------0--------------
E --------5-----------5------------0--------------0--------------
D --------0-----------0------------5--------------5--------------
A --------0-----------0------------5--------------5--------------
D --------0-----------0------------5--------------5--------------
   Fasten me to your side,   and  say it'll  be  soon

      Esus4       Esus4  Dadd9sus4    Dadd9sus4   Esus4    Esus4
E ------0-----------0-----0---------------0---------0---5*---0--5*
A ------0-----------0-----0---------------0---------0---5*---0--5*
E ------0-----------0-----0---------------0---------5---5*---5--5*
D ------2-----------2-----5---------------5---------0---5*---0--5*
A ------2-----------2-----5---------------5---------0---5*---0--5*
D ------2-----------2-----5---------------5---------0---5*---0--5*
   You make me so crazy, baby, I could swallow the moon

Verse 2: After 2nd & last lines, play Esus4 1 extra time 

      Dsus2          Dadd9                  Dadd9sus4      Esus4
E ------0--------------0------------------------0------------0---
A ------0--------------0------------------------0------------0---
E ------5--------------7------------------------0------------0---
D ------0--------------0------------------------5------------7---
A ------0--------------0------------------------5------------7---
D ------0--------------0------------------------5------------7---
   My hands are two travelers they've crossed oceans  and  lands
  But they  are too small on   the        continent of your skin
And  wandering,    wandering,              I could spend my life
     Traveling   the length   of   your        body  each  night

Repeat Chorus: Same except last line is played as follows...

      Esus4       Esus4  Dadd9sus4    Dadd9sus4   
E ------0-----------0-----0---------------0---------
A ------0-----------0-----0---------------0---------
E ------0-----------0-----0---------------0---------
D ------2-----------2-----5---------------5---------
A ------2-----------2-----5---------------5---------
D ------2-----------2-----5---------------5---------
   You make me so crazy, baby, I could swallow 

        Dsus2   Esus4   Dadd9sus4   Dadd9sus4
E --------0-------0--------0-----------0-------------------------
A --------0-------0--------0-----------0-------------------------
E --------5-------0--------0-----------0-------------------------
D --------0-------2--------5-----------5-------------------------
A --------0-------2--------5-----------5-------------------------
D --------0-------2--------5-----------5-------------------------
     the moo  -   oo   -   oo  - n, swallow
     the moo  -   oo   -   oo  - n

Bridge: In 6/8 time, play each chord 2X & repeat whole thing!!!

         F#m9                  Eadd9sus4
E -----------0-----------------------0---------------------------
A --------------0-----------------------0------------------------
E --------4--------4-------------2---------2---------------------
D -----4----------------------2----------------------------------
A --4----------------------2-------------------------------------
D ---------------------------------------------------------------

Repeat Chorus: Same except last line is played as follows...

      Esus4       Esus4  Dadd9sus4    Dadd9sus4   
E ------0-----------0-----0---------------0---------
A ------0-----------0-----0---------------0---------
E ------0-----------0-----0---------------0---------
D ------2-----------2-----5---------------5---------
A ------2-----------2-----5---------------5---------
D ------2-----------2-----5---------------5---------
   You make me so crazy, baby, I could swallow 

        Dsus2   Esus4   Dadd9sus4   Dadd9sus4
E --------0-------0--------0-----------0-------------------------
A --------0-------0--------0-----------0-------------------------
E --------5-------0--------0-----------0-------------------------
D --------0-------2--------5-----------5-------------------------
A --------0-------2--------5-----------5-------------------------
D --------0-------2--------5-----------5-------------------------
     the moo  -   oo   -   oo  - n, swallow
     the moo  -   oo   -   oo  - n, swallow
     the moo  -   oo   -   oo  - n, swallowwwwwwww...
       owwwwwwwwwwwww the moon 

E --0----5*------------------------------------------------------
A --0----5*------------------------------------------------------
E --0----5*------------------------------------------------------
D --0----5*------------------------------------------------------
A --0----5*------------------------------------------------------
D --0----5*------------------------------------------------------