Jump to: navigation, search

Kiss the Flame (tabs)

Lyrics & Info

Tabs

Performances (21)

Kiss the Flame
Tabbed byBreAnn S
TuningStandard
CapoNone
Kiss the Flame by Jewel
Tabbed by BreAnn S. 

Standard Tuning, No capo, 4/4 time, Quarter note = ~74
                                  (metronomeonline.com)
Chords:  Em7 = XX2033   Em9 = XX2032   Em7-0 = XX2030
         Dsus4 = XX0233   D = XX0232   Dsus2 = XX0230
         Gadd9 = 300230  G6th = 300030  
         FMaj7 = X33010  C9 = X32030

Notes:  -Jewel sure does love Travis picking!  This is
	 yet another song in that style...
	-If you're a gent, you can make changes 
	 below to the "show me one man..." part, etc.

Intro:

 Em7                  Em9
--3-----------3--------2-----------2--------------
--------3-----------3--------3-----------3--------
-----0-----------0--------0-----------0-----------
--2--------2-----------2--------2-----------------
--------------------------------------------------
--------------------------------------------------

 Em7-0                Em9
--0-----------0--------0-h/2-----------2----------
--------3-----------3------------3-----------3----
-----0-----------0------------0-----------0-------
--2--------2-----------2------------2-------------
--------------------------------------------------
--------------------------------------------------

Dsus4                  D
--3-----------3--------2-----------2--------------
--------3-----------3--------3-----------3--------
-----2-----------2--------2-----------2-----------
--0--------0-----------0--------0-----------------
--------------------------------------------------
--------------------------------------------------

Dsus2                  D
--0-----------0--------0-h/2-----------2----------
--------3-----------3------------3-----------3----
-----2-----------2------------2-----------2-------
--0--------0-----------0------------0-------------
--------------------------------------------------
--------------------------------------------------

Verse 1:  Fingerpicking here same as in Intro

  Em7             Em9    Em7-0         Em9
Please love let's make    no impartial vow
   Dsus4      D         Dsus2         D
Let all fall away that's not crucial now
          Em7   Em9
I want a brave love, 
                  Em7-0         Em9
One that makes me weak  in the knees
         Dsus4          D   
I want a crazy, crazy lover, 
           Dsus2           D          Intro Pattern
One who'll make me come undone at the seams


Verse 2:
     Em7                 Em9            Em7-0            Em9
I'm tired of all these Pilgrims, these Puritans, these Thieves
  Dsus4         D                  Dsus2              D
Of all the unbeleivers who whittle love down at the knees
           Em7            Em9    
Let these swift roads destroy themselves
        Em7-0                Em9
Let the world fall into its sleep
                 Dsus4                     D         
For we shall be spared, we shall be left standing
   Dsus2               D             (Em7)Intro Pattern
To face what's left of   concrete and honey

Chorus:
        Gadd9                 G6th
	--------------0--------------------0---------
	--3--------------------3---------------------
	--------2-----------2--------0-----------0---
	-----0-----------0--------0-----------0------
	---------------------------------------------
(D)	--3--------3-----------3--------3------------
Kiss the flame

Gadd9                 G6th
--------------0--------------------0-----------
--3--------------------3-----------------------
--------2-----------2--------0-----------0-----
-----0-----------0--------0-----------0--------
-----------------------------------------------
--3--------3-----------3--------3--------------
                Let's run with the 

FMaj7                FMaj7
--------------0--------------------0-----------
--1--------------------1-----------------------
--------2-----------2--------2-----------2-----
-----3-----------3--------3-----------3--------
--3--------3-----------3--------3--------------
-----------------------------------------------
hunted,         the untamed

FMaj7                FMaj7
--------------0--------------------0-----------
--1--------------------1-----------------------
--------2-----------2--------2-----------2-----
-----3-----------3--------3-----------3--------
--3--------3-----------3--------3--------------
-----------------------------------------------
                      Kiss     the 

Gadd9                 G6th
--------------0--------------------0-----------
--3--------------------3-----------------------
--------2-----------2--------0-----------0-----
-----0-----------0--------0-----------0--------
-----------------------------------------------
--3--------3-----------3--------3--------------
flame

Gadd9                 G6th
--------------0--------------------0-----------
--3--------------------3-----------------------
--------2-----------2--------0-----------0-----
-----0-----------0--------0-----------0--------
-----------------------------------------------
--3--------3-----------3--------3--------------
                   Embrace           the 

FMaj7                FMaj7
--------------0--------------------0-----------
--1--------------------1-----------------------
--------2-----------2--------2-----------2-----
-----3-----------3--------3-----------3--------
--3--------3-----------3--------3--------------
-----------------------------------------------
faceless,       the unnamed

FMaj7                FMaj7
--------------0--------------------0-----------
--1--------------------1-----------------------
--------2-----------2--------2-----------2-----
-----3-----------3--------3-----------3--------
--3--------3-----------3--------3--------------
-----------------------------------------------
                      Kiss     the 

  (Em7)Intro Pattern   
flame                    haaaaaaa

Verse 3:
           Em7                 Em9
There are nightmares on the sidewalks
        Em7-0      Em9
There are jokes on T.V.
          Dsus4            D
There are people selling thoughtlessness
          Dsus2    D
With such casual - ty
  Em7                Em9              Em7-0              Em9
Wherefore art thou, Romeo?  Where have all the brave men gone?
           Dsus4               D
Show me one man who knows his own heart,
  Dsus2           D
To him I shall belong

REPEAT CHORUS - same as first Chorus (Live)  **OR**... 

REPEAT CHORUS, last line as notated below (SPIRIT version)

	  Em7                   D
	 --3-----------3--------2-----------2---------
	 --------3-----------3--------3-----------3---
	 -----0-----------0--------2-----------2------
	 --2--------2-----------0--------0------------
	 ---------------------------------------------
(FMaj7)	 ---------------------------------------------
Kiss the flame

  C9                   C9
--------------0--------------------0-----------
--3--------------------3-----------------------
--------0-----------0--------0-----------0-----
-----2-----------2--------2-----------2--------
--3--------3-----------3--------3--------------
-----------------------------------------------
                      Kiss              the

 Em7                   D
--3-----------3--------2-----------2-----------
--------3-----------3--------3-----------3-----
-----0-----------0--------2-----------2--------
--2--------2-----------0--------0--------------
-----------------------------------------------
-----------------------------------------------
flame

  C9                   C9
--------------0--------------------0-----------
--3--------------------3-----------------------
--------0-----------0--------0-----------0-----
-----2-----------2--------2-----------2--------
--3--------3-----------3--------3--------------
-----------------------------------------------
                      Kiss              the

 Em7                   D
--3-----------3--------2-----------2-----------
--------3-----------3--------3-----------3-----
-----0-----------0--------2-----------2--------
--2--------2-----------0--------0--------------
-----------------------------------------------
-----------------------------------------------
flame

  C9                   C9
--------------0--------------------0-----------
--3--------------------3-----------------------
--------0-----------0--------0-----------0-----
-----2-----------2--------2-----------2--------
--3--------3-----------3--------3--------------
-----------------------------------------------

(Em7)Intro Pattern 
......................... haaaaaaa

Tag:

  Em7             Em9    Em7-0         Em9
Please love let's make    no impartial vow