Jump to: navigation, search

Last Dance Rodeo (tabs)

Lyrics & Info

Tabs

Performances (55)

Last Dance Rodeo
Tabbed byBreAnn S
TuningDADEAE
CapoNone
Last Dance Rodeo by our cowgirl Jewel
Tabbed by BreAnn S. off of GBAIW

Tuning = DADEAE, no capo
6/8 Time, Quarter note = ~48 (metronomeonline.com) 

Notes:
	-Thanks to JewelWiki for lyrics
	 ( www.jewelwiki.com )
	-What can I say?  This is one of
	 my favorite Jewel songs, and I can't
	 seem to get enough of playing in this
	 interesting tuning!
	-If you memorize the chords, this song
	 is really easy...which makes it fun to play!
	-Here's a cool recording on Jewel's official
	 website:
 http://www.jeweljk.com/library/medi...Rodeo&w=350&h=0

Intro: 2X, half-strummed, half-picked style
E -12*------------0-----------0---0--0--0--------------
A ---12*----------0-----------0---0--0--0--------------
E -----12*--------0---0-h/2---0---3--2--0--------------
D -------12*------0---0-------0---0--0--0--------------
A ---------12*----0---0-------0------------------------
D -----------12*--0---0-------0------------------------

E -----------------------------------------------------
A -----------------------------------------------------
E -------4------------4-----------4-----------4--------
D -4--4-----4--4--4-----4--4--4-----4--4--4-----4------
A -4-----------4----4------4----4------4----4----------
D -4-----------4-----------4-----------4---------------

Verse 1: Strumming as chords...
E -----0-------------------0------------0-------0------
A -----0-------------------0------------0-------0------
E -----0-------------------2------------0-------2------
D -----0-------------------0------------0-------0------
A -----0-------------------0------------0-------0------
D -----0-------------------0------------0-------0------
Your lungs fill up with concrete; Her voice is all you can hear

E --0------------0------------0-------0----0----0------
A --0------------0------------0-------0----0----0------
E --0------------2------------0-------3----2----0------
D --0------------0------------0-------0----0----0------
A --0------------0------------0------------------------
D --0------------0------------0------------------------
Red lips and a screwdriver wrapped around some mink-

E ---0----------------------0--------------------------
A ---0----------------------0--------------------------
E ---0----------------------0--------------------------
D ---5----------------------5--------------------------
A ---5----------------------5--------------------------
D ---5----------------------5--------------------------
   clad queer

E -------0-------------------0--------------0----------0--
A -------0-------------------0--------------0----------0--
E -------0-------------------2--------------0----------2--
D -------0-------------------0--------------0----------0--
A -------0-------------------0--------------0----------0--
D -------0-------------------0--------------0----------0--
And you know that she's no diamond in this damn jukebox hell

E --0------------0------------0-------0----0----0------
A --0------------0------------0-------0----0----0------
E --0------------2------------0-------3----2----0------
D --0------------0------------0-------0----0----0------
A --0------------0------------0------------------------
D --0------------0------------0------------------------
'Cause only fools gold fools fools in two-bit hotels, but she's 

E ---0----------------------0--------------------------
A ---0----------------------0--------------------------
E ---0----------------------0--------------------------
D ---5----------------------5--------------------------
A ---5----------------------5--------------------------
D ---5----------------------5--------------------------
   cooler than all that, a real high class cat

E ---0----------------------------0--0--0--------------
A ---0----------------------------0--0--0--------------
E ---0----------------------------0--0--0--------------
D ---0----------------------------5--4--0--------------
A ---0----------------------------0--0--0--------------
D ---0-------------------------------------------------
   Queen of the last dance rodeo

Pre-Chorus:
E ---0--0-------0--0---------0--0------0--0------------
A ---0--0-------0--0---------0--0------0--0------------
E ---0--0-------0--0---------0--0------0--0------------
D ---0--0-------0--0-------4-----------0--0------------
A -4----------5----------------------4-----------------
D -----------------------------------------------------
   Under the gas lamp the air is   thick and 

E -----------------------------------------------------
A -----------------------------------------------------
E -------4------------4-----------4-----------4--------
D -4--4-----4--4--4-----4--4--4-----4--4--4-----4------
A -4-----------4----4------4----4------4----4----------
D -4-----------4-----------4-----------4---------------
  velvetine

E -------0--0------------0--0--------0--0---0--0-------
A -------0--0------------0--0--------0--0---0--0-------
E -------0--0------------0--0--------0--0---0--0-------
D -------0--0------------0--0------4--------0--0-------
A -----4---------------5------------------4------------
D -----------------------------------------------------
Your bones fill with hunger, your heart       fills with 

E -----------------------------------------------------
A -----------------------------------------------------
E -------4------------4-----------4-----------4--------
D -4--4-----4--4--4-----4--4--4-----4--4--4-----4------
A -4-----------4----4------4----4------4----4----------
D -4-----------4-----------4-----------4---------------
  longing

E --0-----------------------------------0--------------
A --0-----------------------------------0--------------
E --0-----------------------------------0--------------
D --2-----------------------------------2--------------
A --2-----------------------------------2--------------
D --2-----------------------------------2--------------
   You're no longer human; You're an insatiable hole

E ---------0------------------------------0------------
A ---------0------------------------------0------------
E ---------0------------------------------0------------
D ---------5------------------------------5------------
A ---------5------------------------------5------------
D ---------5------------------------------5------------
You wanna bury your face forever in the navel of her soul

E ------------0----------------------------------------
A ------------0----------------------------------------
E ------------0----------------------------------------
D ------------7----------------------------------------
A ------------7----------------------------------------
D ------------7----------------------------------------
  'Cause you know

E --(0)---------------0----------0----0--0--0-------0--
A --(0)---------------0----------0----0--0--0-------0--
E --(0)---------------0---0-h/2--0----3--2--0-------0--
D --(7)---------------0---0------0----0--0--0-------5--
A --(7)---------------0---0------0------------------5--
D --(7)---------------0---0------0------------------5--
   All you need is a heart                 to call home

E --(0)---------------0----------0----0--0--0-------0--
A --(0)---------------0----------0----0--0--0-------0--
E --(0)---------------0---0-h/2--0----3--2--0-------0--
D --(7)---------------0---0------0----0--0--0-------5--
A --(7)---------------0---0------0------------------5--
D --(7)---------------0---0------0------------------5--
   All you need is a heart                 to call home 

E ------------0----------------------------------------
A ------------0----------------------------------------
E ------------0----------------------------------------
D ------------7----------------------------------------
A ------------7----------------------------------------
D ------------7----------------------------------------
            that's all
Verse 2:
Lightbulbs and nylons, and plastic chandeliers
Objects are only objects; They can't feel when you're 
near
But tangerine lips & lily white breasts - 
These things are eternal; Inside them humanity rests
Her skin is like a seashell; You listen to her soul
Like an old time radio show

Repeat Pre-Chorus & Chorus

Bridge: Repeat Guitar part 4X, strumming as chords

E --0-----------------------0--------------------------
A --4-----------------------2--------------------------
E --4-----------------------2--------------------------
D --4-----------------------2--------------------------
A --0-----------------------0--------------------------
D -----------------------------------------------------
   Don't wander too far my one constant star
   Darkness exists except where you are
 My feet are filled with wandering; They follow your own
   'Cause everyhwere you are feels like home

E --0-----------0-----------0---------0---------0------
A --0-----------0-----------0---------0---------0------
E --0-----------2-----------0---------2---------0------
D --4-----------0-----------4---------0---------4------
A --4-----------0-----------4---------0---------4------
D --4-----------0-----------4---------0---------4------
  Oooohhhh  Hey, hey   Ooh, Ohhhh   Ooooh     yeahhhh 

Verse 3: Guitar same as other verses
So search all you miners
You hunters of dreams
Look in the alleyways
For what you know is not what it seems
And feign all you maidens
But don't resist too long
Lest you look behind you
And see your own shadow is gone

Don't you know?
It's the last rodeo
You gotta find yourself a cowboy
Or someone to keep you warm when it's cold

Repeat Pre-Chorus & Chorus