Jump to: navigation, search

Lemondrops and Clover (tabs)

Lyrics & Info

Tabs

Performances (22)

Lemondrops and Clover
Tabbed byJessica
TuningStandard
CapoNone
INTRO: 

  E

e-------------------------------------------
B------9-9-9-----9-9-9-----9-9-9------9-9-9-
G------9-9-9-----9-9-9-----9-9-9------9-9-9-
D------9-9-9-----9-9-9-----9-9-9------9-9-9-
A------7-7-------7-7-------7-7--------7-7---
E--0-0---------0-------0-0----------0-------


e-------------------------------------------
B------9-9-9-----9-9-9-----9-9-9------9-9-9-
G------9-9-9-----9-9-9-----9-9-9------9-9-9-
D------9-9-9-----9-9-9-----9-9-9------9-9-9-
A------7-7-------7-7-------7-7--------7-7---
E--0-0---------0-------0-0----------0-------

Lemondrops and clover, My baby turns me 

e----------------------
B------9-9-9-----9-9-9-
B------9-9-9-----9-9-9-
B------9-9-9-----9-9-9-
A------7-7-------7-7---
E--0-0---------0-------

over And then he turns me 

  Asus2

e-----0-0-0-----0-0-0-----0-0-0-----0-0-0--
B-----0-0-0-----0-0-0-----0-0-0-----0-0-0--
G-----2-2-2-----2-2-2-----2-2-2-----2-2-2--
D-----2-2-2-----2-2-2-----2-2-2-----2-2-2--
A-0-0---------0-------0-0---------0--------
E------------------------------------------

on  Lonely days are 

  E

e-------------------------------------------
B------9-9-9-----9-9-9-----9-9-9------9-9-9-
G------9-9-9-----9-9-9-----9-9-9------9-9-9-
D------9-9-9-----9-9-9-----9-9-9------9-9-9-
A------7-7-------7-7-------7-7--------7-7---
E--0-0---------0-------0-0----------0-------

gone 

  E

e-------------------------------------------
B------9-9-9-----9-9-9-----9-9-9------9-9-9-
G------9-9-9-----9-9-9-----9-9-9------9-9-9-
D------9-9-9-----9-9-9-----9-9-9------9-9-9-
A------7-7-------7-7-------7-7--------7-7---
E--0-0---------0-------0-0----------0-------

Apple cider smoothie My baby really moves me 

   E

e----------------------
B------9-9-9-----9-9-9-
B------9-9-9-----9-9-9-
B------9-9-9-----9-9-9-
A------7-7-------7-7---
E--0-0---------0-------

Don't gotta talk, Just watch the 

  Asus2

e-----0-0-0-----0-0-0-----0-0-0-----0-0-0--
B-----0-0-0-----0-0-0-----0-0-0-----0-0-0--
G-----2-2-2-----2-2-2-----2-2-2-----2-2-2--
D-----2-2-2-----2-2-2-----2-2-2-----2-2-2--
A-0-0---------0-------0-0---------0--------
E------------------------------------------

rain Wash away all the 

   E

e-------------------------------------------
B------9-9-9-----9-9-9-----9-9-9------9-9-9-
G------9-9-9-----9-9-9-----9-9-9------9-9-9-
D------9-9-9-----9-9-9-----9-9-9------9-9-9-
A------7-7-------7-7-------7-7--------7-7---
E--0-0---------0-------0-0----------0-------

stains You can 

Bsus4


e-----0-0-0-----0-0-0-----0-0-0-----0-0-0--
B-----0-0-0-----0-0-0-----0-0-0-----0-0-0--
G-----4-4-4-----4-4-4-----4-4-4-----4-4-4--
D-----4-4-4-----4-4-4-----4-4-4-----4-4-4--
A-2-2---------2-------2-2---------2--------
E------------------------------------------

say you will, Just say you won't hang 

  Asus2

e-----0-0-0-----0-0-0-----0-0-0-----0-0-0--
B-----0-0-0-----0-0-0-----0-0-0-----0-0-0--
G-----2-2-2-----2-2-2-----2-2-2-----2-2-2--
D-----2-2-2-----2-2-2-----2-2-2-----2-2-2--
A-0-0---------0-------0-0---------0--------
E------------------------------------------

on Just let yourself go Let your - 

  E

e-------------------------------------------
B------9-9-9-----9-9-9-----9-9-9------9-9-9-
G------9-9-9-----9-9-9-----9-9-9------9-9-9-
D------9-9-9-----9-9-9-----9-9-9------9-9-9-
A------7-7-------7-7-------7-7--------7-7---
E--0-0---------0-------0-0----------0-------

self fall 

  Asus2

e-----0-0-0-----0-0-0-----0-0-0-----0-0-0--
B-----0-0-0-----0-0-0-----0-0-0-----0-0-0--
G-----2-2-2-----2-2-2-----2-2-2-----2-2-2--
D-----2-2-2-----2-2-2-----2-2-2-----2-2-2--
A-0-0---------0-------0-0---------0--------
E------------------------------------------

Fall 

VERSE:

Sneakers scattered on the floor 
My baby he don't keep no score 
We get along just fine 
Empty clothing, empty bottle of wine 

CHORUS:

You can say you will, 
Just say you won't hang on 
Just let yourself go 
Let yourself fall 
Fall 

BRIDGE:

  Cmaj7

e-----0-0-0-----0-0-0-----0-0-0-----0-0-0--
B-----0-0-0-----0-0-0-----0-0-0-----0-0-0--
G-----5-5-5-----5-5-5-----5-5-5-----5-5-5--
D-----5-5-5-----5-5-5-----5-5-5-----5-5-5--
A-3-3---------3-------3-3---------3--------
E------------------------------------------

They say you lose your love When you say the word


   E

e-------------------------------------------
B------0-0-0-----0-0-0-----0-0-0------0-0-0-
G------1-1-1-----1-1-1-----1-1-1------1-1-1-
D------2-2-2-----2-2-2-----2-2-2------2-2-2-
A------2-2-2-----2-2-2-----2-2-2------2-2-2-
E--0-0---------0-------0-0----------0-------

mine; that's just fine, it might be true But 


  Cmaj7

e-----0-0-0-----0-0-0-----0-0-0-----0-0-0--
B-----0-0-0-----0-0-0-----0-0-0-----0-0-0--
G-----5-5-5-----5-5-5-----5-5-5-----5-5-5--
D-----5-5-5-----5-5-5-----5-5-5-----5-5-5--
A-3-3---------3-------3-3---------3--------
E------------------------------------------

I don't wanna be loved by anybody but 

   E

e-------------------------------------------
B------0-0-0-----0-0-0-----0-0-0------0-0-0-
G------1-1-1-----1-1-1-----1-1-1------1-1-1-
D------2-2-2-----2-2-2-----2-2-2------2-2-2-
A------2-2-2-----2-2-2-----2-2-2------2-2-2-
E--0-0---------0-------0-0----------0-------

you 

You can say you will, 
Just say you won't hang on 
Just let yourself go 
Oh, let yourself 
Oh, let yourself fall