Jump to: navigation, search

Little Sister (tabs)

Lyrics & Info

Tabs

Performances (300)

Little Sister
Tabbed bySteven
TuningStandard
CapoNone
Transcribed by Steven Mattison (tweenwaters@yahoo.com / s.mattison@gmail.com)




['h' denotes a 'hammer-on' wherein the note is hit with the finger 
holding the chord with enough force to cause the note to sound...]

Intro (x1):

     E9
e-|--------2-------0h2-----2h3-----3-|
B-|----3-------3----|--3-------3-----|
G-|-----------------|----------------|
D-|--2---2-------2--|----2-------2---|
A-|-----------------|----------------|
E-|-----------------|----------------|
     D
e-|--------2-------0h2-----2h3-----3-|
B-|----3-------3----|--3-------3-----|
G-|-----------------|----------------|
D-|--0---0-------0--|----0-------0---|
A-|-----------------|----------------|
E-|-----------------|----------------|
     C9  
e-|----------------0|----------------|
B-|----0-------0----|--0-------0---0-|
G-|--------0-----0--|------0-----0---|
D-|-----------------|----------------|
A-|--3---3----------|----3-----------|
E-|-----------------|----------------|
     G
e-|--------3-------3|------3-------3-|
B-|----3-------3----|--3-------3-----|
G-|-----------------|----------------|
D-|-----------------|----------------|
A-|-----------------|----------------|
E-|--3---3-------3--|----3-------3---|

Main (x10):
[The C9 chord arpeggiation is different here]
     E9
e-|--------2-------0h2-----2h3-----3-|
B-|----3-------3----|--3-------3-----|
G-|-----------------|----------------|
D-|--2---2-------2--|----2-------2---|
A-|-----------------|----------------|
E-|-----------------|----------------|
   Hey, ltl sstr, I hrd U went to mr

     D
e-|--------2-------0h2-----2h3-----3-|
B-|----3-------3----|--3-------3-----|
G-|-----------------|----------------|
D-|--0---0-------0--|----0-------0---|
A-|-----------------|----------------|
E-|-----------------|----------------|
    so and so's, knoknoknocking on his

     C9  
e-|--------0--------|------0---------|
B-|----0-------0----|--0-------0---0-|
G-|------0---------0|------------0---|
D-|-----------------|----------------|
A-|--3-----------3--|----3-----------|
E-|-----------------|----------------|
   door again last night, said you

     G
e-|--------3-------3|------3-------3-|
B-|----3-------3----|--3-------3-----|
G-|-----------------|----------------|
D-|-----------------|----------------|
A-|-----------------|----------------|
E-|--3---3-------3--|----3-------3---|
    needed it bad, U know tht aint rite.