Jump to: navigation, search

Lover's Lullaby (tabs)

Lyrics & Info

Tabs

Performances (0)

Lover's Lullaby
Tabbed byJessica
TuningStandard
CapoNone
TUNING: Standard EADGBe


INTRO:

   C           G           G           F                    x2

e--0----------------------------------------------------- 
B------1-------3-----3-----3---0-------1---------1------- 
G---------0-------0-----0---------0----------2-------2---
D-------------------------------------------------------- 
A--3-----------2-----------2-----------3-----------------
E-------------------------------------------------------- 



VERSE 1:

   C           G           G           F                   x4

e--0----------------------------------------------------- 
B------1-------3-----3-----3---0-------1---------1------- 
G---------0-------0-----0---------0----------2-------2---
D-------------------------------------------------------- 
A--3-----------2-----------2-----------3-----------------
E-------------------------------------------------------- 
   The light plays on your face
   The radio plays the same old song
   I ask the question to which there's no answer
   You're the man who's already gone 


   Am              F               x 2

e---------------------------------
B-----------1-1-------------1-1---
G--------2--2-2----------2--2-2---
D-----2---------------3-----------
A--0---------------3--------------
E---------------------------------
   You want most to make a choice
But your tongue can't find its voice




CHORUS 1:

   C           G           G           F

e--0----------------------------------------------------- 
B------1-------3-----3-----3---0-------1---------1------- 
G---------0-------0-----0---------0----------2-------2---
D-------------------------------------------------------- 
A--3-----------2-----------2-----------3-----------------
E-------------------------------------------------------- 
    Don't                   cry,                        it's a 
    lover's                 lullaby 



VERSE 2:

   C           G           G           F                   x4

e--0----------------------------------------------------- 
B------1-------3-----3-----3---0-------1---------1------- 
G---------0-------0-----0---------0----------2-------2---
D-------------------------------------------------------- 
A--3-----------2-----------2-----------3-----------------
E-------------------------------------------------------- 
  You're dangeorus, the eyes of a child
  You disappear if I stare too long
  Passions distract you from the holes that subtract you
  You're the man who's already gone 


   Am              F               x 2

e---------------------------------
B-----------1-1-------------1-1---
G--------2--2-2----------2--2-2---
D-----2---------------3-----------
A--0---------------3--------------
E---------------------------------
   Holding you is like holding the wind
You ravage my soul and then you're gone again 




CHORUS 2:

   C           G           G           F

e--0----------------------------------------------------- 
B------1-------3-----3-----3---0-------1---------1------- 
G---------0-------0-----0---------0----------2-------2---
D-------------------------------------------------------- 
A--3-----------2-----------2-----------3-----------------
E-------------------------------------------------------- 
    Don't                   cry,                        it's a 
    lover's                 lullaby 


BRIDGE:

   F                       F*                  
e-------------------------------------------------- 
B---------------1--1---------------------0--0------ 
G----------2----2--2----------------2----2--2------
D------3--------3--3-----------3---------3--3------ 
A--3-----------------------3----------------------- 
E-------------------------------------------------- 
Rest your hd on my breast    Forget where you've been

      Em                                   Am
e--------------------------------------------------
B--------------0--0---------------------1--1-------
G----------0---0--0-----------------2---2--2-------
D------2-------2--2--------------2------2--2-------
A--2--------------------------0--------------------
E--------------------------------------------------
   It's a woman's talent to  take a man in


   F                       G                  
e-------------------------------------------------- 
B---------------1--1---------------------3--3------ 
G----------2----2--2---------------------0--0------
D------3--------3--3----------------0----0--0------ 
A--3---------------------------2------------------ 
E--------------------------3----------------------- 

Inside myself the          universe is spinning

      Am                        C
e------------------------------------------------------
B--------------0--0-------------1--3----5---6----------
G----------2---1--1------------------------------------
D------2-------2--2------------------------------------
A--0----------------------------3--5----7---8----------
E------------------------------------------------------
Pour yourself into me You shall be you  a - gain


CHORUS 3:

   C           G           G           F

e--0----------------------------------------------------- 
B------1-------3-----3-----3---0-------1---------1------- 
G---------0-------0-----0---------0----------2-------2---
D-------------------------------------------------------- 
A--3-----------2-----------2-----------3-----------------
E-------------------------------------------------------- 
  Don't you, oh, don't you cry
  It's a lover's lullaby 
  Don't you cry
  It's a lover's lullaby