Jump to: navigation, search

Near You Always (tabs)

Lyrics & Info

Tabs

Performances (478)

Near You Always
Tabbed byBreAnn S
TuningDADF#AD
DbAbDbFAbD
CapoNone
Tuning: POY: Db Ab Db F Ab Db  
        2007 Live Perfomance: D A D F# A D

Tempo: Varies, from Quarter = 58 to =69 (metronomeonline.com)
       4/4 Time 

Tab Key: * = harmonic, p/o = pull off, / = slide

Note: She tends to switch back and forth between harmonics on the
      5th fret and 12th fret depending on what she feels like.
      I've been just doing what I feel like too...
      Use the back of your nail on these to get the same tone
      quality as our Jewelie girl! 

For the purpose of this tab, I will mark the tuning on the side
of the tab w/ the tuning from POY, but know that she pretty much 
does it in the other higher tuning now.  My advice would be to 
pick which ever tuning suits your voice the best! 

Intro:

Db ----0-------0-------0-------0------0-------0-------0-------0-----
Ab --5---5---4---4---2---2---0----------0-------0-------0-------0---
F  ------------------------------0--5-----5-4-----4-3-----3-2-----2-
Db -----------------------------------------------------------------
Ab --5-----5-4-----4-2-----2-0--------------------------------------
Db ---------------------------------5-----5-5-----5-4-----4-3-----3-


                                  (or 5*, if you like it better)
Db ----0-------0-------0------12*-----------------------------------
Ab ------0-------0-------0----12*-----------------------------------
F  --1-----1-1-----1-0-----0--12*-----------------------------------
Db ---------------------------12*-----------------------------------
Ab ---------------------------12*-----------------------------------
Db --2-----2-2-----2-0--------12*-----------------------------------

Verse 1:

Db ---0-------0-------0-------0-------0-------0-------0-------0-----
Ab -5---5---4---4---2---2---0---0-------0-------0---4---4-0-2---4-0-
F  -------------------------------0-5-----5-5-----5-----------------
Db -----------------------------------------------------------------
Ab -5-----5-4-----4-2-----2-0-----------------------0-------0-------
Db ---------------------------------5-------5-----------------------
   Please don't say I love you,       those words touch  me much too


Db ---0----------0---------0-------0-------0----------------0-------
Ab -5---5------4---4-----2---2---0---0-----------0-------------0----
F  ------------------------------------0-5-------------5--5------5--
Db -----------------------------------------------------------------
Ab -5-----5----4-----4---2-----2-0----------------------------------
Db --------------------------------------5----------------5---------
   deeply and they make my core tremble   Don't think you realize the 


Db -----0-------0-----------0-----------0------0-0------0-0---------
Ab ---4---4-0-2---4-0-2---2------2---2---------0---0----0---0-------
F  ---------------------0----------0-----------0-----0--0-----0-----
Db --------------------------------------------0--------0-----------
Ab ---0-------0-------2----------2-------------0--------0-----------
Db --------------------------------------------0--------0-----------
   effect you have   over me And please don't come so close


Db ---0---------0---------0-------0--------0-------0-------0-----5*-
Ab ------0---------0--------0-------0--------0-------0-------0---5*-
F  -5------5--4------4--3-----3-2-----2--1-----1-1-----1-0-----0-5*-
Db --------------------------------------------------------------5*-
Ab --------------------------------------------------------------5*-
Db -5------5--5------5--4-----4-3-----3--2-----2-2-----2-0-------5*-
     It just makes me    wanna make you   a - - - - -l-ways
                               near me

Verse 2: guitar same as first verse              Repeat 4 times into
                                                    next section 
Please don't kiss me so sweet                    --0-0-----------
it makes me crave a thousand kisses to follow    --5---0---------
And please don't touch me like that              --0-----0------- 
makes every other embrace seem pale and shallow  --0-------------
Please don't look at me like that                --0-------------
It just makes me want to make you near me always --0-------------

Bridge:

Db -7-----7--5-----5----------0----------0--------------------------
Ab ---0--------0------9-----9---4-----5-----------------------------
F  -----0--------0-------0---------0--------------------------------
Db -----------------------------------------------------------------
Ab -9--------7--------0---------0-----------------------------------
Db -----------------------------------------------------------------
   Please    don't    bring me flow - ers


Db -5--------4---------------------0------------0-------------------
Ab ---0---0-----0-----0---7-----7------4-----5----------------------
F  -----0----------0---------0------------0-------------------------
Db -----------------------------------------------------------------
Ab -7--------5------------0------------0----------------------------
Db -----------------------------------------------------------------
   They only whisper the sweet things you   say and 


Db -7-----7--5-----5----------0----------0--------------------------
Ab ---0--------0------9-----9---4-----5-----------------------------
F  -----0--------0-------0---------0--------------------------------
Db -----------------------------------------------------------------
Ab -9--------7--------0---------0-----------------------------------
Db -----------------------------------------------------------------
   Don't    try   to  un - der-stand  me


Db -------0-------0-------0-------0-------0-------0---------------0-
Ab -5---5---5---5---4---4---4---4---2---2---2---2---4---4---5---5---
F  ---0-------0-------0-------0-------0-------0-------0---0---0-----
Db -----------------------------------------------------------------
Ab -4-------4-------4-------4-------2-------2-------2-------2-------
Db -----------------------------------------------------------------
     Your hands al- ready know  too much anyw-a- - - - - - - - - -ys


Db ---0---------0---------0-------0--------0-------0-------0-----5*-
Ab ------0---------0--------0-------0--------0-------0-------0---5*-
F  -5------5--4------4--3-----3-2-----2--1-----1-1-----1-0-----0-5*-
Db --------------------------------------------------------------5*-
Ab --------------------------------------------------------------5*-
Db -5---------5------5--4-----4-3-----3--2-----2-2-----2-0-------5*-
          It  makes me    wanna make you   a - - - - -l-ways
                               near me
Guitar interlude:

Db -2-p/o-----0--------2-p/o-----0------------2-p/o-----0-----------
Ab -------4/5---5---0--------4/5---0-----0----------4/5---5---0-----
F  ---------------0------------------5/3---3----------------0-------
Db -----------------------------------------------------------------
Ab -----------------------------------------------------------------
Db -0------------------0----------------------0---------------------


Db -2-p/o-----0--------------0--------0------0------0-------0-----5*-
Ab -------4/5---0-----0--------0--------0------0--------------0---5*-
F  ---------------5/3---3--1-----1------------------------------0-5*-
Db --------------------------------/4-----4-3----3-2--2/4--5------5*-
Ab ---------------------------------------------------------------5*-
Db -0-------------------------------------------------------------5*-

Verse 3: Guitar same as 1st verse up to point notated below

And when you look into my eyes
please know my heart is in your hands
It's nothing that I understand, but when in your arms
you have complete power over me
So be gentle if you please 'cause

Db -------------0-----------0---------------0----------------0------
Ab -----------------0---------0----------------0---------------0----
F  -------5-----------5---5--------5---4-----------4-----4--------4-
Db -----------------------------------------------------------------
Ab -----------------------------------------------------------------
Db -------5---------------5------------5-----------------5----------
    Your hands are in my hair, but my heart is in your teeth baby it


Db ---0-------------0--------------0--------0--------0-------0-------
Ab ------0--------------0------------0--------0--------0-------0-----
F  -3-------3---3------------3---2-----3--2-----2--1-----1-1-----1---
Db ------------------------------------------------------------------
Ab ------------------------------------------------------------------
Db -4-----------4----------------3--------3--------2-------2---------
      makes me want to make you near  me  al- - - - - - - - - - - - 


Db ---0------5*-----------------------------------------------------
Ab -----0----5*-----------------------------------------------------
F  -0-----0--5*-----------------------------------------------------
Db ----------5*-----------------------------------------------------
Ab ----------5*-----------------------------------------------------
Db -0--------5*-----------------------------------------------------
    ways    Yeah.

Db -------------0-----------0---------------0----------------0------
Ab -----------------0---------0----------------0---------------0----
F  -------5-----------5---5--------5---4-----------4-----4--------4-
Db -----------------------------------------------------------------
Ab -----------------------------------------------------------------
Db -------5---------------5------------5-----------------5----------
    Your hands are in my hair, but my heart is in your teeth baby it


Db ---0-------------0--------------0--------0--------0-------0-------
Ab ------0--------------0------------0--------0--------0-------0-----
F  -3-------3---3------------3---2-----3--2-----2--1-----1-1-----1---
Db ------------------------------------------------------------------
Ab ------------------------------------------------------------------
Db -4-----------4----------------3--------3--------2-------2---------
      makes me want to make you near  me  al- - - - - - - - - - - - 

Db ---0-------0-------0-------0-------0-------0-------0-------0-----
Ab -5---5---4---4---2---2---0---0-------0-------0---4---4-0-2---4-0-
F  -------------------------------0-5-----5-5-----5-----------------
Db -----------------------------------------------------------------
Ab -5-----5-4-----4-2-----2-0-----------------------0-------0-------
Db ---------------------------------5-------5-----------------------
   -ways................... Wanna be near you al- - - - - - - - - - 

Db ---0-------0-------0-------0-------0-------0-------0-------0-----
Ab -5---5---4---4---2---2---0---0-------0-------0---4---4-0-2---4-0-
F  -------------------------------0-5-----5-5-----5-----------------
Db -----------------------------------------------------------------
Ab -5-----5-4-----4-2-----2-0-----------------------0-------0-------
Db ---------------------------------5-------5-----------------------
   -ways................... Wanna be near you al- - - - - - - - - - 

                                      (Slowing down here)

Db ---0-------0-------0-------0-------0-------0-------0-------0-----
Ab -5---5---4---4---2---2---0---0-------0-------0---4---4-0-2---4-0-
F  -------------------------------0-5-----5-5-----5-----------------
Db -----------------------------------------------------------------
Ab -5-----5-4-----4-2-----2-0-----------------------0-------0-------
Db ---------------------------------5-------5-----------------------
   -ways................... wanna be near you, oh al- - - - - - - - 


Db -12*----5*-------------------------------------------------------
Ab -12*----5*-------------------------------------------------------
F  -12*----5*-------------------------------------------------------
Db -12*----5*-------------------------------------------------------
Ab -12*----5*-------------------------------------------------------
Db -12*----5*-------------------------------------------------------
   -w-a-ys