Jump to: navigation, search

No More Heartaches (tabs)

Lyrics & Info

Tabs

Performances (5)

No More Heartaches
Tabbed byJessica
TuningStandard
Capo2nd Fret
PICKING PATTERN (PER SWEET & MILD)

  G X 2

e-3---------3------3P0-------0-----
B-----------------------3-------3--
G-----0--------0-----------0-------
D----------------------------------
A----------------------------------
E-3------3---------3------------3--


  C9 X 2

e-3---------3------3P0-------0-----
B-----------------------3-------3--
G-----0--------0-----------0-------
D----------------------------------
A-3------3---------3------------3--
E----------------------------------

  D X 2

e-2--------2--0--------3----
B----3-----------3--------3-
G-------2-----------2-------
D-0-----------0-------------
A---------------------------
E---------------------------

VERSE:

G                                                    C9
Shut up, sweetheart, there's something I need you to hear

                 G                         D
I can no longer love the same thing that I fear

G                          D
I can no longer let myself stay close

       Em               C
To the one thing that's hurt me the most

G               D
I can no longer romance the thorn

       Em                     D
Hearts don't need to bleed to know what they're for


CHORUS:

            G    D     C    D
There'll be no - more heartaches

            G    D     C    D        Cm
There'll be no - more heartaches for me

              G 
Oh, can't you see?

VERSE (SAME AS ABOVE)

I take back my sweetness
Cause it's overlooked by your lust
And my songs are unseen because your touch is too tough
And I don't think your hands know how to adore
The subtlety of me anymore
I will unfasten myself from your side
And slip away, quiet as a sigh

CHORUS (SAME AS ABOVE)

Cause there'll be no more heartaches
There'll be no more heartaches for me

BRIDGE: 

              Em             C
Oh, can't you see, can't you see?

          G                     D             
Can't you see what your love is done to me?

              Em                  C
I need you to know, I need you to know

       G            D
You've gotta let me go

     G             
Beds filled with suspicion,

    D
And hearts filled with spite

    Em                               C
We sleep with thieves and ignore our sight

   G                  D
So quick, so quick to hold

               Em             D
Someone else's worth over our own

CHORUS: 


There'll be no more heartaches
There'll be no more, no there'll be no more,
No there'll be no more heartaches for me
Can't you see?