Jump to: navigation, search

One True Thing (tabs)

Lyrics & Info

Tabs

Performances (0)

One True Thing
Tabbed byJessica
TuningStandard
CapoNone
INTRO: 



G - D - C  e-------------
           B-------------
           G--------0----
           D--0--2-------
           A-------------
           E-----------3-

VERSE 1:

G        Dsus           C
Everyday I turn on the evening news
                  G               Dsus              C
And I got to tell you I think the whole worlds gone crazy

           e-----------------
           B-----------------
           G-------0---------
           D--0H2----2P0-----
           A-------------2---
           E---------------3-

G               Dsus                      C
Everytime I am turning around someone is selling something new
                G              Dsus                 C
It's getting so bad I don't believe anything anyone tells me
Am           G             Cadd9                      
But baby you have the most honest eyes
Am             G          F
Maybe your the piece I'm missing in my life

CHORUS: 

I am looking for 

  G
e----------------------------------------
B----------------------------------------
G--0-0-0-0-0-0-0--0--0--0-0-0-0-0-0------
D--9-9-9-7-7-7-10-10-10-9-9-9-7-7-9------
A----------------------------------------
E-----------------------------------5H7--
   one   true  thing

  G
e----------------------------
B----------------------------
G--0-0-0-0-0-0-0--0--0--0-0-0
D--9-9-9-7-7-7-10-10-10-9-9-9
A----------------------------
E----------------------------
   one   true  thing

             C
that I can believe in
              G
Searching for one real love
                         C
All my life I have been waiting
                      D
For one thing that is true
                    G - D - C
Could it be you?

VERSE 2: (SAME AS FIRST)


G               D                  C
Seems like everytime I am walking down the street


e-0--/-0--/-0--/-0--
B-1--/-3--/-1--/-0--
G-0--/-0--/-0--/-0--
D-------------------
A-------------------
E-------------------

G            D              C
No one even looks me in the eye

e----------------------------------
B----------------------------------
G--------0-------0--------0--------
D--0--2-----0--2----0--2-----2--0--
A----------------------------------
E----------------------------------


G                 D                   C 
Everyones got an angle Everyones got agendas 
And a secret to keep

e-0--/-0--/-0--/-0--
B-1--/-3--/-1--/-0--
G-0--/-0--/-0--/-0--
D-------------------
A-------------------
E-------------------

            G            D             C
That is the one thing On which you can rely
Am       G            Cadd9
When you look at me I think I see something new
Am      G            F
Tell me baby, can I put my faith in you?

CHORUS: 
                 G
I am looking for one true thing
                             C
One true thing that I can believe in
              G
Searching for one real love
                         C
All my life I have been waiting
                      D
For one thing that is true
            Em
Could it be you?

BRIDGE: 

Em                         C
So tell me before I go too far
Am                   D
Tell me now before I give you my heart