Jump to: navigation, search

Painters (tabs)

Lyrics & Info

Tabs

Performances (17)

Painters
Tabbed byJessica
TuningDbAbDbFAbD
CapoNone
INTRO: 

d-----------0----------------------7*------------------0------------5*--
A--------0-----0-----0--------0-------7*------------0-----0-----0-------
F#----0-----------0--------0-------------7*------0-----------0----------
D--2--------------------2---------------------0-------------------------
A-----------------------------------------------------------------------
D-----------------------------------------------------------------------

VERSE: 

  Dsus  (X2)              D (X2)
d-----------0----------|------------0-----------
A--------0-----0-----0-|---------0-----0-----0--
F#----0-----------0----|------0-----------0-----
D--2-------------------|---0--------------------
A----------------------|------------------------
D----------------------|------------------------
  Eighty years ...      Sitting on the front porch watching...
  clouds roll by they ..And of times long ago When she used
  Color carelessly ...  Portrait a thousand times or maybe just his smile
  her and her canvas..  Wherever he would go 'Cause they were

CHORUS: 

d-----------0----------------------0-----------
A--------0-----0-----0----------0-----0-----0--
F#----0-----------0----------0-----------0-----
D----------------------------------------------
A-4-----------------------3--------------------
D----------------------------------------------
 painters and they were   painting themselves a
d-----------0----------------------0-----------
A--------0-----0-----0----------0-----0-----0--
F#----0-----------0----------0-----------0-----
D----------------------------------------------
A-2-----------------------2--------------------
D----------------------------------------------
 lovely 
d-----------0-----------------------0-----------
A--------0-----0-----0-----------0-----0-----0--
F#----0-----------0-----------0-----------0-----
D--------------------------0--------------------
A-----------------------------------------------
D--0-------------------0------------------------
 world

   D
d-----------12*------------0---------------0-----------
A-------12*-----12*-----------0---------0-----0-----0--
F#-----------------12*----------0----0-----------0-----
D---------------------12*---------0--------------------
A------------------------------------------------------
D------------------------------------------------------

VERSE: 

  Dsus  (X2)              D (X2)
d-----------0----------|------------0-----------
A--------0-----0-----0-|---------0-----0-----0--
F#----0-----------0----|------0-----------0-----
D--2-------------------|---0--------------------
A----------------------|------------------------
D----------------------|------------------------
  Oil streaked daisies...He put water colored ...
  "Love, I love you....   The sunset too
  I just want to give ...beautiful as you are to 

CHORUS: 

d-----------0----------------------0-----------
A--------0-----0-----0----------0-----0-----0--
F#----0-----------0----------0-----------0-----
D----------------------------------------------
A-4-----------------------3--------------------
D----------------------------------------------
  me Cuz I'm a           painter   and I want to 
d-----------0----------------------0-----------
A--------0-----0-----0----------0-----0-----0--
F#----0-----------0----------0-----------0-----
D----------------------------------------------
A-2-----------------------2--------------------
D----------------------------------------------
  paint you      A lovely 
d-----------0-----------------------0-----------
A--------0-----0-----0-----------0-----0-----0--
F#----0-----------0-----------0-----------0-----
D--------------------------0--------------------
A-----------------------------------------------
D--0-------------------0------------------------
 world"
d-----------12*------------0---------------0-----------
A-------12*-----12*-----------0---------0-----0-----0--
F#-----------------12*----------0----0-----------0-----
D---------------------12*---------0--------------------
A------------------------------------------------------
D------------------------------------------------------

VERSE: 

  Dsus  (X2)              D (X2)
d-----------0----------|------------0-----------
A--------0-----0-----0-|---------0-----0-----0--
F#----0-----------0----|------0-----------0-----
D--2-------------------|---0--------------------
A----------------------|------------------------
D----------------------|------------------------
  So they sat down ...    And they made it an art...
  Painted every passion ..beautiful child
  In the winter they ... summer they were carpenters..
  blue prints were too... yellow 'cause they were

CHORUS: 

d-----------0----------------------0-----------
A--------0-----0-----0----------0-----0-----0--
F#----0-----------0----------0-----------0-----
D----------------------------------------------
A-4-----------------------3--------------------
D----------------------------------------------
 painters and they were   painting themselves a
d-----------0----------------------0-----------
A--------0-----0-----0----------0-----0-----0--
F#----0-----------0----------0-----------0-----
D----------------------------------------------
A-2-----------------------2--------------------
D----------------------------------------------
 lovely 
d-----------0-----------------------0-----------
A--------0-----0-----0-----------0-----0-----0--
F#----0-----------0-----------0-----------0-----
D--------------------------0--------------------
A-----------------------------------------------
D--0-------------------0------------------------
 world

   D
d-----------12*------------0---------------0-----------
A-------12*-----12*-----------0---------0-----0-----0--
F#-----------------12*----------0----0-----------0-----
D---------------------12*---------0--------------------
A------------------------------------------------------
D------------------------------------------------------

BRIDGE: 

d-----------0--------------------0--------------
A--------3----3------3--------2-----2--------2--
F#----3---------3----------3-----------3--------
D--0--------------0-----0-----------------0-----
A-----------------------------------------------
D-----------------------------------------------
  Until one             day the rain fell as
  thick as black        oil
  And in her            heart she knew 
  something was         wrong she went 
  running through the   orchard screaming
  "No God, don't        take him from me!" and
  by the time she       got there she feared 
  he al    -            ready had 
d-----------0--------------------0------------------------0--------------
A--------1----1------1--------0-----0--------0---------0-----0--------0--
F#----3---------3----------0-----------0------------0-----------0--------
D--0--------------0-----0-----------------0------0-----------------0-----
A------------------------------------------------------------------------
D------------------------------------------------------------------------
  gone


d-----------0--------------------0--------------
A--------3----3------3--------2-----2--------2--
F#----3---------3----------3-----------3--------
D--0--------------0-----0-----------------0-----
A-----------------------------------------------
D-----------------------------------------------
  She got to            where he lay
  Water colored         roses in his 
  hands for her                                 She threw them down screaming
 "Damn you man, don't   leave me with
  nothing left be  -    hind but these cold
  paintings these cold  portraits to
  remind meeeeeeeeeeeeeeeeeeeeeeeee........

d-----------0--------------------0------------------------0--------------
A--------1----1------1--------0-----0--------0---------0-----0--------0--
F#----3---------3----------0-----------0------------0-----------0--------
D--0--------------0-----0-----------------0------0-----------------0-----
A------------------------------------------------------------------------
D------------------------------------------------------------------------
   eeeeeeeeeeeeeeeeeeeeeeeeeeee"                               He said

d-----------4----------------------4----------------------4----------------------4--------
A-----4--------4-----4-------4--------4-----4-------4--------4-----4-------4--------4-----
F#-------0----------------------0----------------------0----------------------0-----------
D--4--------------4-------3--------------3-------2--------------2-------0-----------------
A--------------------------------------------------------------------------------------4--
D-----------------------------------------------------------------------------------------
  Love I only            leave a little          Try to under    -      stand
  I put my               soul in this life We've created with these four hands
  Love, I leave, but     only a little      This world holds me         still
  My body may            die now but these       paintings are          real"
  La-di-da               la-di-da                la-di-da               di-da


d---5*-------5*------------0---------------0-----------
A-------5*------5*-----------0---------0-----0-----0--
F#-----------------5*----------0----0-----------0-----
D---------------------5*---------0--------------------
A------------------------------------------------------
D------------------------------------------------------

VERSE: 

  Dsus  (X2)              D (X2)
d-----------0----------|------------0-----------
A--------0-----0-----0-|---------0-----0-----0--
F#----0-----------0----|------0-----------0-----
D--2-------------------|---0--------------------
A----------------------|------------------------
D----------------------|------------------------
  So many seasons ...     went and many times ...
  Watering the flowers ...singing to his children
  And when the winds...   oh how he seemed to laugh along
  And how he seemed ...   crying  'cause they were

CHORUS: 

d-----------0----------------------0-----------
A--------0-----0-----0----------0-----0-----0--
F#----0-----------0----------0-----------0-----
D----------------------------------------------
A-4-----------------------3--------------------
D----------------------------------------------
 painters and they had   painted themselves a
d-----------0----------------------0-----------
A--------0-----0-----0----------0-----0-----0--
F#----0-----------0----------0-----------0-----
D----------------------------------------------
A-2-----------------------2--------------------
D----------------------------------------------
 lovely 
d-----------0-----------------------0-----------
A--------0-----0-----0-----------0-----0-----0--
F#----0-----------0-----------0-----------0-----
D--------------------------0--------------------
A-----------------------------------------------
D--0-------------------0------------------------
 world

   D
d-----------12*------------0---------------0-----------
A-------12*-----12*-----------0---------0-----0-----0--
F#-----------------12*----------0----0-----------0-----
D---------------------12*---------0--------------------
A------------------------------------------------------
D------------------------------------------------------


  Dsus  (X2)              D (X2)
d-----------0----------|------------0-----------
A--------0-----0-----0-|---------0-----0-----0--
F#----0-----------0----|------0-----------0-----
D--2-------------------|---0--------------------
A----------------------|------------------------
D----------------------|------------------------
  Eighty years ...      Sitting on the front porch watching...
  clouds roll by they ..And of times long ago When she used
  Color carelessly ...  Portrait a thousand times or maybe just his smile
  her and her canvas..  Wherever he would go yes
  her and her canvas... follow 'cause they are

CHORUS: 

d-----------0----------------------0-----------
A--------0-----0-----0----------0-----0-----0--
F#----0-----------0----------0-----------0-----
D----------------------------------------------
A-4-----------------------3--------------------
D----------------------------------------------
 painters and they are   painting themselves a
d-----------0----------------------0-----------
A--------0-----0-----0----------0-----0-----0--
F#----0-----------0----------0-----------0-----
D----------------------------------------------
A-2-----------------------2--------------------
D----------------------------------------------
 lovely                                yes they are
d-----------0----------------------0-----------
A--------0-----0-----0----------0-----0-----0--
F#----0-----------0----------0-----------0-----
D----------------------------------------------
A-4-----------------------3--------------------
D----------------------------------------------
 painters and they are   painting themselves a
d-----------0----------------------0-----------
A--------0-----0-----0----------0-----0-----0--
F#----0-----------0----------0-----------0-----
D----------------------------------------------
A-2-----------------------2--------------------
D----------------------------------------------
 lovely (X2)

d-----------0-----------------------0-----------
A--------0-----0-----0-----------0-----0-----0--
F#----0-----------0-----------0-----------0-----
D--------------------------0--------------------
A-----------------------------------------------
D--0-------------------0------------------------
 world

d---------------------5*-
A------5*----------5*----
F#--5*----5*----5*-------
D------------5*----------
A------------------------
D------------------------