Jump to: navigation, search

Quest for Love (tabs)

Lyrics & Info

Tabs

Performances (1)

Quest for Love
Tabbed byBreAnn S
TuningEbAbDbGbBbEb
CapoNone
Quest for Love by Jewel
Tabbed by BreAnn S. 

EbAbDbGbBbEb Tuning, No capo, 4/4 Time, Quarter Note = ~72
				    (metronomeonline.com) 

Chords:  D = X00232   Cadd9b5 = X30032   BmAug5 = X20032     
         G = 320033   A = X02220  Bm = X24432  F# = 244322     
            D/C = X30230   D/B = X20030   D/A = X10030  
    Asus4 = X02230  Em = 022030   D/F#= X00233   E = 022100


Notes:	-This song is fingerpicked until the Chorus, then
	 full strums


Intro:  
  D             Cadd9b5            BmAug5              G   A
--2----3--2--0-----2-----3--2--0-----2-----3--2--0-----3---0--
--3----3--3--3-----3-----3--3--3-----3-----3--3--3-----3---2--
--2----2--2--2-----0-----0--0--0-----0-----0--0--0-----0---2--
-------------------0-----0--0--0-----0-----0--0--0-----0---2--
-------------------3-----3--3--3-----2-----2--2--2-----2---0--
-------------------------------------------------------3------

Verse 1:
     Bm             A                G              A
From one world to another,   There's so much to discover
   Bm              A              G      Bm      A
I feel so small inside,      But courage has no size
    F#       Bm     G       F#    Bm       A
My heart knows where to go,    And I will follow

Chorus:
           D         D/C           D/B         D/A
It's the little things that make a difference
           D         D/C            G    Asus4  A
It's the quest for love that brings us life
           D                 D/C                Bm   D     C
It's the dream of what could be   That makes it all worthwhile
           G
Like you being by my side
       A             Asus4      (D)Intro Pattern
And a love that only grows with time

Verse 2:
     Bm              A             G              A
Sometimes I lose my way,	Unsure, I grow afraid
            Bm                  A         Bm    D      A
There's no wrong I can't make right  With you standing by
    F#       Bm    G                F#    Bm        A
It takes a friend like you    To remind me of what I knew

REPEAT CHORUS: All same as before except last line...

       A             Asus4       D   D  Em  D/F#  G
And a love that only grows with time

Bridge:
G                               D
  And I'll be strong, I'll be brave,
G                          E
  To your world and back again
(E)                     A   Asus4   A
Keep on goin' 'til the end,  oh

REPEAT CHORUS: All same as before except last line...

       			     D         Cadd9b5       D/B  D/A  D 
     			   --2---3-2-0----2---3-2-0---2----0---2-
     			   --3---3-3-3----3---3-3-3---3----3---3-
     			   --2---2-2-2----0---0-0-0---0----0---2-
     			   ---------------0---0-0-0---0----0-----
     			   ---------------3---3-3-3---2----1-----
     A               Asus4 --------------------------------------
And love that only grooooooowwwwwws with time