Jump to: navigation, search

Sov Gott (Sleep Well) (tabs)

Lyrics & Info

Tabs

Performances (28)

Sov Gott (Sleep Well)
Tabbed byJessica
TuningStandard
Capo2nd Fret
INTRO: X2

  G       Cadd9                             G  
e-----------------3--------------3---------------------3------------3--------
B------------3------3-------3-------3--------------3-----3------3-----3------
G---0---0-------0--------------0----------0---0------0------------0----------
D---------------------2---------------2--------------------------------------
A-----2---3--------------3--------------3---2---------------2------------2---
E-3---------------------------------------------3-------------3------------3-


  G       Cadd9                             G
e-----------------3--------------3---------------------3------------3--------
B------------3------3-------3-------3--------------3-----3------3-----3------
G---0---0-------0--------------0----------0---0------0------------0----------
D---------------------2---------------2--------------------------------------
A-----2---3--------------3--------------3---2---------------2------------2---
E-3---------------------------------------------3-------------3------------3-
  Sov     gott,                       vackra delfin

  G       Cadd9                             G
e-----------------3--------------3---------------------3------------3--------
B------------3------3-------3-------3--------------3-----3------3-----3------
G---0---0-------0--------------0--------------0------0------------0----------
D---------------------2---------------2---0----------------------------------
A-----2---3--------------3--------------3---2---------------2------------2---
E-3---------------------------------------------3-------------3------------3-
  Sov       gott, j                  ag vita varg


           A7sus4               C - G               
e-----------------3------------------------3----
B------------3------3------------------3-----3--
G---0---0-------0---------0---0---0-------0-----
D-----0---2-----------2-3---2-------------------
A--2----------------------------3---2----------2
E-----------------------------------------------
Vi har kärlek för varandra

  C-G                    C-G
----------------3-------------------------3---
------------3-----3-------------------3-----3-
----0---0-----0-------------0---0-------0-----
----------------------------------------------
--3---2--------------2----3---2---------------
3---------3------------3-----------3----------
För varandra

  C-G                     c-G
----------------3-------------------------3---
------------3-----3-------------------3-----3-
----0---0-----0-------------0---0-------0-----
----------------------------------------------
--3---2--------------2----3---2---------------
3---------3------------3-----------3----------
För alltid

VERSE (with humming)

(same as above VERSE)
Sov gott, vackra delfin
Sov gott, jag vita varg
Vi har kärlek för varandra
För varandra
För alltid

VERSE:
Sov gott
Sov gott, jag vita varg
Morgonen vaknar
Då kysser vi
Kysser vi, Kysser vi,

  Cadd9            G                Gm6              A7sus4  
e-------3----------------3----------------3----------------3---------
B---3----3---3-------3----3---3-------3----3---3-------3----3---3----
G----0----0---0-------0----0---0-------0----0---0-------0----0---0---
D-----2--------2-------0--------0-------0--------0-------0--------0--
A-3--------3-------2--------2-------1--------1-------0--------0------
E--------------------------------------------------------------------
     Sov            -                       gott

  Cadd9            G                Gm6              A7sus4    
e-------3----------------3----------------3----------------3---------
B---3----3---3-------3----3---3-------3----3---3-------3----3---3----
G----0----0---0-------0----0---0-------0----0---0-------0----0---0---
D-----2--------2-------0--------0-------0--------0-------0--------0--
A-3--------3-------2--------2-------1--------1-------0--------0------
E--------------------------------------------------------------------
Sov gott,       för           all          -                tid

     Gsus2(maj7)-G
e-----------------3---------------3----
B-------------------3----3----------3--
G---0---0----0---------------0---------
D--------------0---------------0-------
A-0--------------------2---------------
E-----2---3----------------3-----------


VERSE:
Sov gott, vackra delfin
Sov gott, jag vita varg
Vi har kärlek för varandra
För varandra, för alltid

VERSE:
Sov gott
Sov gott, jag vita varg
Morgonen vaknar
Då kysser vi,
Då kysser vi, för alltid

  Cadd9            G                Gm6              A7sus4  
e-------3----------------3----------------3----------------3---------
B---3----3---3-------3----3---3-------3----3---3-------3----3---3----
G----0----0---0-------0----0---0-------0----0---0-------0----0---0---
D-----2--------2-------0--------0-------0--------0-------0--------0--
A-3--------3-------2--------2-------1--------1-------0--------0------
E--------------------------------------------------------------------
Då kysser vi, 

  Cadd9            G                Gm6              A7sus4  
e-------3----------------3----------------3----------------3---------
B---3----3---3-------3----3---3-------3----3---3-------3----3---3----
G----0----0---0-------0----0---0-------0----0---0-------0----0---0---
D-----2--------2-------0--------0-------0--------0-------0--------0--
A-3--------3-------2--------2-------1--------1-------0--------0------
E--------------------------------------------------------------------
för alltid


  G
e-----------------3---------------3--------------------3---------------3---
B-------------------3----3----------3--------------------3----3----------3-
G---0---0----0---------------0-----------0---0----0---------------0--------
D--------------0---------------0--------------------0---------------0------
A-0--------------------2---------------0--------------------2--------------
E-----2---3----------------3---------------2---3----------------3----------
                                        Sov gott


  G
e-----------------3---------------3--------------------3---------------3---
B-------------------3----3----------3--------------------3----3----------3-
G---0---0----0---------------0-----------0---0----0---------------0--------
D--------------0---------------0--------------------0---------------0------
A-0--------------------2---------------0--------------------2--------------
E-----2---3----------------3---------------2---3----------------3----------
Sov gott                               Sov gott