Jump to: navigation, search

Sweet Dreams (tabs)

Lyrics & Info

Tabs

Performances (11)

Sweet Dreams
Tabbed byJessica
TuningStandard
Capo3rd Fret
Sweet Dreams, by Jewel

   C/G

e----0-0---0-0---0-0---0-0---0-0---0-0-
B----1-1---1-1---1-1---1-1---1-1---1-1-
G----0-0---0-0---0-0---0-0---0-0---0-0-
D--------------------------------------
A--3-----------3-----------3-----------
E--------3------------3----------3-----

The shadows are waltzing The moon beams are calling 
Like a dream I am falling 

   B*

e----2-2---2-2---2-2---2-2---0-0---0-0-
B----0-0---0-0---0-0---0-0---1-1---1-1-
G----2-2---2-2---2-2---2-2---0-0---0-0-
D--------1-----------1-----------1-----
A--2-----------2-----------2-----------
E--------------------------------------

into 

  Em                   A7    D

e----------------------------2-2---3-3---2-2---0-0--
B----0-0---0-0---0-0---2-2---3-3---3-3---3-3---3-3--
G----0-0---0-0---0-0---0-0---2-2---2-2---2-2---2-2--
D----2-2---1-1---0-0---2-2-0-----------0------------
A----2-2---2-2---2-2-0-----------0-----------0------
E--0-----0-----0------------------------------------

Silver threads lined with dew 
Twinkling stars seem to shine just for you 

   C/G

e----0-0---0-0---0-0---0-0---0-0---0-0-
B----1-1---1-1---1-1---1-1---1-1---1-1-
G----0-0---0-0---0-0---0-0---0-0---0-0-
D--------------------------------------
A--3-----------3-----------3-----------
E--------3------------3----------3-----


Behind your eyes Are endless blue skies 
You travel places, I want to come, 

   B*

e----2-2---2-2---2-2---2-2---0-0---0-0-
B----0-0---0-0---0-0---0-0---1-1---1-1-
G----2-2---2-2---2-2---2-2---0-0---0-0-
D--------1-----------1-----------1-----
A--2-----------2-----------2-----------
E--------------------------------------

too 

  Em                   A7    D

e----------------------------2-2---3-3---2-2---0-0--
B----0-0---0-0---0-0---2-2---3-3---3-3---3-3---3-3--
G----0-0---0-0---0-0---0-0---2-2---2-2---2-2---2-2--
D----2-2---1-1---0-0---2-2-0-----------0------------
A----2-2---2-2---2-2-0-----------0-----------0------
E--0-----0-----0------------------------------------

Each breath that you breathe Is a brush stroke that leads me to you 


CHORUS:

   G           B*          C/G         D

e----3-3---3-3---2-2---2-2---0-0---0-0---2-3---2-0-
B----3-3---3-3---0-0---0-0---1-1---1-1---3-3---3-3-
G----0-0---0-0---2-2---2-2---0-0---0-0---2-2---2-2-
D--------------1-----------------------------0-----
A--------2-----------2-----3-----------0-----------
E--3----------------------------3------------------

So sleep Fall into night’s indigo hue 


   G           B*          C/G         D

e----3-3---3-3---2-2---2-2---0-0---0-0---2-3---2-0-
B----3-3---3-3---0-0---0-0---1-1---1-1---3-3---3-3-
G----0-0---0-0---2-2---2-2---0-0---0-0---2-2---2-2-
D--------------1-----------------------------0-----
A--------2-----------2-----3-----------0-----------
E--3----------------------------3------------------

Believe me, its true Theres nothing that I would not do

   Em          C      D     G

e----------------0-0----2-2---3-3--------3-3---3-3--
B----------------1-1----3-3---3-3--------3-3---3-3--
G----0-0---0-0---0-0----2-2---0-0--------0-0---0-0--
D----2-2---1-1--------------------------------------
A----2-2---2-2-3------0----------3/2/0--------2-----
E--0-----0------------------3----------3------------

For my dream is sweet dreams for you 


VERSE II:

It seems far away 
But there once was a day 
It was grey in a world without you 
To this heart like a dove from above 
The miracle of your love found me 

CHORUS II:

So sleep 
Fall into night’s indigo hue 
Believe me, its true 
Theres nothing that I would not do 
For my dream is sweet dreams for you 

BRIDGE:

  Em                   A7    D

e--------------------------------------------------
B----0-0---0-0---0-0---------0-0---0-0---0-0-------
G----0-0---0-0---0-0---0-0---0-0---0-0---0-0---0-0-
D----2-2---1-1---0-0---2-2---2-2---1-1---0-0---2-2-
A----2-2---2-2---2-2---0-0---2-2---2-2---2-2---0-0-
E--0-----0-----0------0----0-----0-----0------0----

So hush-a-by And don’t you cry

e----------------------------2-2---3-3---2-2---0-0-3-
B----0-0---0-0---0-0---2-2---3-3---3-3---3-3---3-3---
G----0-0---0-0---0-0---0-0---2-2---2-2---2-2---2-2---
D----2-2---1-1---0-0---2-2-------0-----------0-------
A----2-2---2-2---2-2---0-0-0-----------0-------------
E--0-----0-----0------0------------------------------

Sweetly dream, little baby

Yes, sleep
Lose yourself in night’s indigo hue
Believe me it’s true
There’s nothing that I would not do
For my dream is sweet dreams
Yes, my dream is sweet dreams for you