Jump to: navigation, search

Thump, Thump (tabs)

Lyrics & Info

Tabs

Performances (35)

Thump, Thump
Tabbed byBreAnn S
TuningStandard
Capo4th Fret
Standard Tuning, Capo 4, 4/4 Time, Quarter Note = ~88

Chords: D = X00232  Dsus2 = X00230  Dadd9(3) = XX2033
        Dadd9(2) = XX2032  Dadd9(0) = XX2030
        G = 320033  D/F# = 200232  Em = 022000
        GMaj7 = 3XX002  Bm = X24432

Notes: -On the D/F#, wrap your thumb over the neck to
	play the bass note on the 2nd fret
       -Jewel plays the Dadd9 pattern differently
	almost every time she plays it, so just
	do the top notes how you want them to sound
       -The picking pattern for this song is 
	called "Travis Picking"...
	Learn how here:
http://www.guitarland.com/SoundFiles/Travis1.mov 

Intro: 
   D                  Dsus2          
E--2-----------2--------0-----------0---------
B--------3-----------3--------3-----------3---
G-----2-----------2--------2-----------2------   2X
D--0--------0-----------0--------0------------
A---------------------------------------------
E---------------------------------------------

Dadd9(2)             Dadd9(0)
--2-----------2--------0-----------0----------
--------2-----------2--------2-----------2----
-----0-----------0--------0-----------0-------
--2--------0-----------2--------0-------------
----------------------------------------------
----------------------------------------------

Dadd9(3)	     Dadd9(2)
--3-----------3--------2-----------2----------
--------2-----------2--------2-----------2----
-----0-----------0--------0-----------0-------
--2--------0-----------2--------0-------------
----------------------------------------------
----------------------------------------------

Verse 1: Picking pattern same as Intro

D                  Dsus2          D           
This feeling in my heart, Can't start 
      Dsus2         Dadd9(2)     Dadd9(0)     
To describe what you mean to me
Dadd9(3)        Dadd9(2)
Sweet       mystery
          D         Dsus2         
When I'm lyin' in my bed, 
       D                  Dsus2
The thoughts that fill my head
               Dadd9(2)      Dadd9(0)
Well, they're ecstasy, 
     Dadd9(3)       Dadd9(2)
Baby  can't    you   see?

Chorus 1: 

   D                  Dsus2          
E--2-----------2--------0-----------0---------
B--------3-----------3--------3-----------3---
G-----2-----------2--------2-----------2------   2X
D--0--------0-----------0--------0------------
A---------------------------------------------
E---------------------------------------------
I think     I          will, 
I think     I          might        let 

Dadd9(3)	     Dadd9(2)
--3-----------3--------2-----------2----------
--------2-----------2--------2-----------2----
-----0-----------0--------0-----------0-------
--2--------0-----------2--------0-------------
----------------------------------------------
----------------------------------------------
 go

Dadd9(0)             Dadd9(2)
--0-----------0--------2-----------2----------
--------2-----------2--------2-----------2----
-----0-----------0--------0-----------0-------
--2--------0-----------2--------0-------------
----------------------------------------------
----------------------------------------------
                      Let    myself 

  D                  Dsus2           
--2-----------2--------0-----------3----------
--------3-----------3--------3-----------3----
-----2-----------2--------2-----------2-------  2X
--0--------0-----------0--------0-------------
----------------------------------------------
----------------------------------------------
 fall

  G                         D/F#
--3-----------3--------    --2-----------2--------
--------3-----------3--    --------3-----------3--
-----0-----------0----- 2X -----2-----------2----- 2X
-----------------------    -----------------------
-----------------------    -----------------------
--3--------3-----------    --2--------2-----------
     It does not really    matter,    

  Em			    D/F#
--3-----------3--------    --2-----------2--------
--------3-----------3--    --------3-----------3--
-----0-----------0----- 2X -----2-----------2----- 2X
-----------------------    -----------------------
-----------------------    -----------------------
--3--------3-----------    --2--------2-----------
         If we speak at     all

  G                         D/F#
--3-----------3--------    --2-----------2--------
--------3-----------3--    --------3-----------3--
-----0-----------0----- 2X -----2-----------2----- 2X
-----------------------    -----------------------
-----------------------    -----------------------
--3--------3-----------    --2--------2-----------
          'Cause in the     darkness, I swear,   

  Em			    D/F#
--3-----------3--------    --2-----------2--------
--------3-----------3--    --------3-----------3--
-----0-----------0----- 2X -----2-----------2----- 2X
-----------------------    -----------------------
-----------------------    -----------------------
--3--------3-----------    --2--------2-----------
I hear the language of your heart,          and it

  G                         D/F#
--3-----------3--------    --2-----------2--------
--------3-----------3--    --------3-----------3--
-----0-----------0----- 2X -----2-----------2----- 2X
-----------------------    -----------------------
-----------------------    -----------------------
--3--------3-----------    --2--------2-----------
 says,           "Thump,   Thump",          "Let's

  Em			    
--3-----------3--------    
--------3-----------3--    
-----0-----------0----- 2X 
-----------------------    
-----------------------    
--3--------3-----------       Intro pattern  
 jump",       "Let's fall in love"

Verse 2: Picking pattern same as Verse 1 

            D            Dsus2     D       Dsus2
Well this house is not a home, If I'm left alone
            Dadd9(2)    Dadd9(0)  
Without you in my       bed
  Dadd9(3)           Dadd9(2)    D
I roll around like a marble   instead
        Dsus2       D                    Dsus2
Of you holding me tight, All through the night
          Dadd9(2)     Dadd9(0)    
I miss you by my side,                         
       Dadd9(3)        Dadd9(2)
No,     it's     not    right

Chorus 2:  Picking pattern same as Chorus 1

        D     Dsus2     D     Dsus2    Dadd9(2-0)
So, I think I will, I think I might let go
G                           D/F#     
 'Cause it does not really matter,    
Em                D/F#
   If we speak at all
G                 D/F#         
  'Cause in the darkness, I swear,
   Em                        D/F#
I hear the language of your heart,
        G             D/F#           Em
And it says, "Thump, Thump", "Let's jump", 
                Bm
"Let's fall in love"

Bridge:

 Bm                          D
--2-----------3--------    --2-----------2--------
--------3-----------3--    --------3-----------3--
-----4-----------4----- 2X -----2-----------2----- 2X
-----------------------    --0--------0-----------
--2--------2-----------    -----------------------
-----------------------    -----------------------
    Melodies appear,        every time you're near

GMaj7                        Em
--2-----------2--------    --0-----------0--------
--------0-----------0--    --------0-----------0--
-----0-----------0----- 2X -----0-----------0----- 2X
-----------------------    -----------0-----------
-----------------------    -----------------------
--3--------3-----------    --0--------------------
    Your laughter is poetry to me

 Bm                          D
--2-----------3--------    --2-----------2--------
--------3-----------3--    --------3-----------3--
-----4-----------4----- 2X -----2-----------2----- 2X
-----------------------    --0--------0-----------
--2--------2-----------    -----------------------
-----------------------    -----------------------
   Oh, the scent of your   skin, well it does me in

GMaj7                        Em
--2-----------2--------    --0-----------0--------
--------0-----------0--    --------0-----------0--
-----0-----------0----- 2X -----0-----------0----- 4X
-----------------------    -----------0-----------
-----------------------    -----------------------
--3--------3-----------    --0--------------------
    So get yourself on      over here

Chorus 3:  Picking pattern same as other verses

G                    D/F#   Em                D/F#
Because it does not matter,    If we speak at all
G                  D/F#
  'Cause in the darkness, I swear, 
   Em                        D/F#
I hear the language of your heart
         G           D/F# 
And it says, "Thump,Thump" 
        Em             D/F#     G            D/F#
And it says, it says, ohhhh it says "Thump, Thump"
                Em
Oooh It says, "Let's jump",  
                 D  Dsus2  D  Dsus2  Dadd9(2-0-3-2)  D
"Let's fall in love"