Jump to: navigation, search

Tiny Love Spaces (tabs)

Lyrics & Info

Tabs

Performances (31)

Tiny Love Spaces
Tabbed byBreAnn S
TuningDADF#AD
CapoNone
Tuning = DADF#AD  3/4 Time, Quarter note = 144 (metronomeonline.com)

Tab Key: h/o = hammer on, p/o = pull off, / = slide, * = harmonic


Intro: Play Riff 2X through 

D ----------------0-------------------0------------------------5*--7*-
A --5-p/o-0----------0--5-p/o-0----------0--5-p/o-0---------0--5*--7*-
F#-----------5/7-----------------5/7-----------------5/7/5--0--5*--7*-
D ----------------------------------------------------------0--5*--7*-
A ----------------------------------------------------------0--5*--7*-
D --0-------------------0-------------------0------------------5*--7*-


Verse 1:

D ----------------0-------------------0------------------------5*--7*-
A --5-p/o-0----------0--5-p/o-0----------0--5-p/o-0---------0--5*--7*-
F#-----------5/7-----------------5/7-----------------5/7/5--0--5*--7*-
D ----------------------------------------------------------0--5*--7*-
A ----------------------------------------------------------0--5*--7*-
D --0-------------------0-------------------0------------------5*--7*-
    I                  don't              care

D ----------------0-------------------0------------------------5*--7*-
A --5-p/o-0----------0--5-p/o-0----------0--5-p/o-0---------0--5*--7*-
F#-----------5/7-----------------5/7-----------------5/7/5--0--5*--7*-
D ----------------------------------------------------------0--5*--7*-
A ----------------------------------------------------------0--5*--7*-
D --0-------------------0-------------------0------------------5*--7*-
    if                 you                 leave

D -----------0-----------------0-----------------0------------------
A --5-----5-----5-----2-----2-----2-----0-----0-----0---------------
F#-----0-----------0-----0-----------0-----0-----------0------------
D ------------------------------------------------------------------
A ------------------------------------------------------------------
D --0-----------------0-----------------0---------------------------
Your name           after          the beep

D --------------------------0--------------0-----------------0-----
A --0-h/o-2-p/o-0--------------0--5-----5-----5-----2-----2----2---
F#-----------------1-p/o-0-----------0-----------0-----0----------0
D -----------------------------------------------------------------
A -----------------------------------------------------------------
D --0-----------------------------0-----------------0--------------
                           Don't care if those are promises  you

D --5--4-----2---0-----------------------------------------------------
A --5--5-----2---0-----------------------------------------------------
F#---------------------------------------------------------------------
D ---------------------------------------------------------------------
A ---------------------------------------------------------------------
D --0--------0---------------------------------------------------------
   In-tend  to keep

D -----------5----------------5-----------------0-----------------0-------
A --5-----5-----5----5-----5-----5-----0-----0-----0-----0-----0-----0----
F#-----5----------5-----5-----------5-----0-----------0-----0-----------0-
D ------------------------------------------------------------------------
A -----------5----------------5-----------------0-----------------0-------
D --5----------------5-----------------0-----------------0----------------
Cause lov -  ers    are      just     sha -   dows                    that

D -----------2-----------------2--------5--------5--------5--------5------
A --2-----2-----2-----2-----2-----2--------5--------5--------5--------5---
F#-----2-----------2-----2-----------2--------5--------5--------5--------5
D ------------------------------------------------------------------------
A -----------2-----------------2------------------------------------------
D --2-----------------2-----------------5--------5--------5--------5------
  dis - ap - pear   with      the      light                        And my

D -----------5----------------5-----------------0-----------------0-------
A --5-----5-----5----5-----5-----5-----0-----0-----0-----0-----0-----0----
F#-----5----------5-----5-----------5-----0-----------0-----0-----------0-
D ------------------------------------------------------------------------
A -----------5----------------5-----------------0-----------------0-------
D --5----------------5-----------------0-----------------0----------------
            happ-i- ness     don't           depend      on         if you

D -----------2-----------------2-----------------0-----------------
A --2-----2-----2-----2-----2-----2-----5-----5-----5--------------
F#-----2-----------2-----2-----------2-----4-----------4-----------
D -----------------------------------------------------------------
A -----------2-----------------2-----------------------------------
D --2-----------------2-----------------0--------------------------
   come                        to -    night        oh........


Intro Riff 1x through


Verse 2: Same guitar part as Verse 1

I don't think that you're cheap
I don't expect anything
You don't gotta leave what time you called
On my machine.
'Cause being in love just means calling places
When you can't afford the bill
'Cause we all got these tiny love spaces
That we need to fill
Ohoh oo

Bridge 1:


D --7--------7--------5--------5--------0--------0---------------------0----
A -----7--------7--------5--------5--------0--------0-----2-p/o-----------0-
F#--------7--------7--------5--------5--------0--------0---------1-p/o------
D --------------------------------------------------------------------------
A --------------------------------------------------------------------------
D --7--------7--------5--------5--------0--------0--------0-----------------
           Fillin'    up      tiny love    spaces 

D --7--------7--------5--------5--------0--------0---------------------0----
A -----7--------7--------5--------5--------0--------0-----2-p/o-----------0-
F#--------7--------7--------5--------5--------0--------0---------1-p/o------
D --------------------------------------------------------------------------
A --------------------------------------------------------------------------
D --7--------7--------5--------5--------0--------0--------0-----------------
          Getting    lost     in          insatiable mazes

D --7--------7--------5--------5--------0--------0---------------------0----
A -----7--------7--------5--------5--------0--------0-----2-p/o-----------0-
F#--------7--------7--------5--------5--------0--------0---------1-p/o------
D --------------------------------------------------------------------------
A --------------------------------------------------------------------------
D --7--------7--------5--------5--------0--------0--------0-----------------
          Looking  for heroes in          worn-out faces

D ---------------7----------5-----------------------------------------------
A ---------------7----------5------5----------------------------------------
F#---------------7----------5-----------------------------------------------
D ---------------7----------5-----------------------------------------------
A ---------------7----------5-----------------------------------------------
D ---------------7----------5------5----------------------------------------
  Looking for a great big love in tiny places

Bridge 2:


D -----------0-----------------0-----------------0-----------------0--------
A --5-----5-----5-----5-----5-----5-----4-----4-----4-----4-----4-----4-----
F#-----4-----------4-----4-----------4-----0-----------0-----0-----------0--
D --------------------------------------------------------------------------
A --------------------------------------4-----------------4-----------------
D --5-----------------5-----------------------------------------------------
            You wake up       it's the morning

D -----------0-----------------0-----------------0-----------------0--------
A --5-----5-----5-----5-----5-----5-----4-----4-----4-----4-----4-----4-----
F#-----4-----------4-----4-----------4-----0-----------0-----0-----------0--
D --------------------------------------------------------------------------
A --------------------------------------4-----------------4-----------------
D --5-----------------5-----------------------------------------------------
      Put my high-powered columbian crystals in the coffee machine

D -----------0-----------------0-----------------0-----------------0--------
A --5-----5-----5-----5-----5-----5-----4-----4-----4-----4-----4-----4-----
F#-----4-----------4-----4-----------4-----0-----------0-----0-----------0--
D --------------------------------------------------------------------------
A --------------------------------------4-----------------4-----------------
D --5-----------------5-----------------------------------------------------
Read the newspaper,      listen to Beethoven's fifth, do almost anything  
drink six cups of java,

D -----------0-----------------0-----------------0-----------------0--------
A --5-----5-----5-----5-----5-----5-----4-----4-----4-----4-----4-----4-----
F#-----4-----------4-----4-----------4-----0-----------0-----0-----------0--
D --------------------------------------------------------------------------
A --------------------------------------4-----------------4-----------------
D --5-----------------5-----------------------------------------------------
            not to   hear the phone   ringggggggggggggggggggggggggggggggggg

D -----------0---------5*-
A --5-----5-----5---------
F#-----4-----------4------   Intro Riff again 1x   
D ------------------------
A ------------------------
D --5---------------------
ggggggggggggggggggggg      Ahoh-oh oh


Verse 3: Same guitar as other verses

And I don't mind that you're emotionally blind
Don't care if I'm someone you want to see
You don't got to leave your 
Number for me
'Cause I do not need your (f*-ing) Goshdarn phone calls
Telling me how you feel
I only just need to make love 
To tell me that I'm real          'Cause we...

Tag:

D -----------5----------------5-----------------0-----------------0-------
A --5-----5-----5----5-----5-----5-----0-----0-----0-----0-----0-----0----
F#-----5----------5-----5-----------5-----0-----------0-----0-----------0-
D ------------------------------------------------------------------------
A -----------5----------------5-----------------0-----------------0-------
D --5----------------5-----------------0-----------------0----------------
   all      got these tiny love                spaces              that we

D -----------2-----------------2-----------------0-----------------
A --2-----2-----2-----2-----2-----2-----5-----5-----5--------------
F#-----2-----------2-----2-----------2-----4-----------4-----------
D -----------------------------------------------------------------
A -----------2-----------------2-----------------------------------
D --2-----------------2-----------------0--------------------------
   need               to               fill               ohhhhhh...

End:  Play Intro Riff 2x, then...
                                  --5*--
                                  --5*--
                                  --5*--
                                  --5*--
                                  --5*--
                                  --5*--