Jump to: navigation, search

Twinkle, Twinkle Little Star (tabs)

Lyrics & Info

Tabs

Performances (1)

Twinkle, Twinkle Little Star
Tabbed byJessica
TuningStandard
Capo2nd Fret
INTRO: 
D sus 2

e-------0-----------0--------
B-----3----3-----3---3-------
G-----------2----------2-----
D--0-----------0----------0--
A------0-----------0---------
E----------------------------




  D sus 2        G              A      D
e-------0---------------------------------0-------------2-----
B----3-----3-----3---3----------2------3-----3-------3-----3--
G-----------2---0-------0-----2---2-------------2------------2
D--0----------------------0-----------0-------------0----------
A------0---------------------0-----------0-------------0-------
E--------------3----------------------------------------------

Twinkle,       twinkle       little  star ----------



   G             D            A          D sus 2    D
e-------------------2--------------0--------0------------2-----
B---3---3---------3----3---------2-------3----3------3----3----
G--0-------0--------------2----2-----------------2-----------2-
D---------------------------------------0-----------0----------
A--------------0-------------0-------------0-----------0-------
E-3------------------------------------------------------------

How  I         wonder        what       you are



   G           D             A          D sus 2    D
e-------------------2--------------0--------0------------2-----
B---3---3---------3----3---------2-------3----3------3----3----
G--0-------0--------------2----2-----------------2-----------2-
D---------------------------------------0-----------0----------
A--------------0-------------0-------------0-----------0-------
E-3------------------------------------------------------------

Up             above   the   world so high 



   G           D             A          D sus 2    D
e-------------------2--------------0--------0------------2-----
B---3---3---------3----3---------2-------3----3------3----3----
G--0-------0--------------2----2-----------------2-----------2-
D---------------------------------------0-----------0----------
A--------------0-------------0-------------0-----------0-------
E-3------------------------------------------------------------

  Like  a       diamond      in the     sky



  D sus 2        G              A      D
e-------0---------------------------------0-------------2-----
B----3-----3-----3---3----------2------3-----3-------3-----3--
G-----------2---0-------0-----2---2-------------2------------2
D--0----------------------0-----------0-------------0----------
A------0---------------------0-----------0-------------0-------
E--------------3----------------------------------------------

Twinkle,       twinkle       little  star ----------



   G             D            A          D sus 2    D
e-------------------2--------------0--------0------------2-----
B---3---3---------3----3---------2-------3----3------3----3----
G--0-------0--------------2----2-----------------2-----------2-
D---------------------------------------0-----------0----------
A--------------0-------------0-------------0-----------0-------
E-3------------------------------------------------------------

How  I         wonder        what       you are




The key change is the same pattern, but it's:

D = G
G = C
A = D