Jump to: navigation, search

Two Hearts Breaking (tabs)

Lyrics & Info

Tabs

Performances (35)

Two Hearts Breaking
Tabbed byJessica
TuningStandard
CapoNone
INTRO:

e-------------------------------
B-------------------------------
G-------------------------------
D------0----0--------2-----2----
A--2-2--2-2---2--0-0---0-0---0--
E-------------------------------

VERSE:

e-------------------------------
B-------------------------------
G-------------------------------
D------0----0--------2-----2----
A--2-2--2-2---2--0-0---0-0---0--
E-------------------------------
You're the ship, I'm the wreck
You're the bomb, I'm the tick
You're the pause before the fall
I'm the crash that follows it all

CHORUS:

       D           F#m
We are one, we are whole
        Bm             A
We are one whole dying soul
          D
We're the crash, the burn,
    F#m
The dream that turns
     Bm         A
From ecstasy to aching
Em         G           
We are the sound of

Two hearts breaking


VERSE:

e-------------------------------
B-------------------------------
G-------------------------------
D------0----0--------2-----2----
A--2-2--2-2---2--0-0---0-0---0--
E-------------------------------

You're the blink, I'm the eye.
You're the shiver, I'm the knife
You're the crutch, I'm the break
You're the emptiness I make

CHORUS:

       D           F#m
We are one, we are whole
        Bm             A
We are one whole dying soul
          D
We're the crash, the burn,
    F#m
The dream that turns
     Bm         A
From ecstasy to aching
Em         G           
We are the sound of
            D
Two hearts breaking

    A           Em
I'm dry heaving tears from crying all these years
      D                      A
And I know this is your nightmare come true
  Em
I never wanted this for you

VERSE:

e-------------------------------
B-------------------------------
G-------------------------------
D------0----0--------2-----2----
A--2-2--2-2---2--0-0---0-0---0--
E-------------------------------
But I'm the teeth, you're the heart
And together, we're the start
Of the inhale and the scream
You're the not waking
I'm the not dreaming

CHORUS:

       D           F#m
We are one, we are whole
        Bm             A
We are one whole dying soul
          D
We're the crash, the burn,
    F#m
The dream that turns
     Bm         A
From ecstasy to aching
Em         G           
We are the sound of
Em         G           
We are the sound of
            D
Two hearts breaking