Jump to: navigation, search

Unsung in Your Eyes (tabs)

Lyrics & Info

Tabs

Performances (6)

Unsung in Your Eyes
Tabbed byJessica
TuningDGCFAD
CapoNone
Tuning: DGCFAD 
(Full step down from standard.  
Can be played in EADGBe,
but it will sound "high")

VERSE: 

  D                    Cadd9         G
e----------2h3p2p0----------0---------------0----
B-------3----------------------3---------------3-
G----2-------------------------------------------
D-0---------------------2---------------0--------
A------------------0--3------------0-------------
E------------------------------------3-----------

Rising to the challenge
Tough boys always appeal
With a little bit of varnish
With a little bit of glue
I'm gonna fix you up
Bring out the best in you
I'm going to empty myself out
Hollowed of pride and bone
Fill you with myself
Your courage will be my own


  Cadd9                   G
e----0-----------0-----------0-----------0--------
B-------3-----------3-----------3-----------3-----
G----------0-----------0-----------0-----------0--
D-------------------------------------------------
A-3-----------3-----------2-----------2-----------
E-------------------------------------------------
  But still I             falter

Your hands know not my own
It's not that my body is overlooked


  Am                         D
e----0-----------0-----------2-----------2--------
B-------1-----------1-----------3-----------3-----
G----------2-----------2-----------2-----------2--
D-------------------------0-----------0-----------
A-0-----------0-----------------------------------
E-------------------------------------------------
   My soul is just           undone

  Cadd9                   G
e----0-----------0-----------0-----------0--------
B-------3-----------3-----------3-----------3-----
G----------0-----------0-----------0-----------0--
D-------------------------------------------------
A-3-----------3-----------2-----------2-----------
E-------------------------------------------------
  And I cry myself to sleep
It should come as no surprise
I've tailored myself to fit your needs Still I am 

  Am                         D
e----0-----------0-----------2-----------2--------
B-------1-----------1-----------3-----------3-----
G----------2-----------2-----------2-----------2--
D-------------------------0-----------0-----------
A-0-----------0-----------------------------------
E-------------------------------------------------
  un           -             sung in your 

  Cadd9                   G
e----0-----------0-----------0-----------0--------
B-------3-----------3-----------3-----------3-----
G----------0-----------0-----------0-----------0--
D-------------------------------------------------
A-3-----------3-----------2-----------2-----------
E-------------------------------------------------
  eyes


  Am                         D
e----0-----------0-----------2-----------2--------
B-------1-----------1-----------3-----------3-----
G----------2-----------2-----------2-----------2--
D-------------------------0-----------0-----------
A-0-----------0-----------------------------------
E-------------------------------------------------
  Still I am unsung in your 

  Cadd9                   G
e----0-----------0-----------0-----------0--------
B-------3-----------3-----------3-----------3-----
G----------0-----------0-----------0-----------0--
D-------------------------------------------------
A-3-----------3-----------2-----------2-----------
E-------------------------------------------------
  eyes