Jump to: navigation, search

Violet Eyes (tabs)

Lyrics & Info

Tabs

Performances (77)

Violet Eyes
Tabbed byJessica
TuningStandard
Capo2nd Fret
A pattern (for verse)





e-----0-------0----0---

B-2-----2h3-----3----2-

G---2-------2-----2----

D----------------------

A-0-----0-------0----0-

E----------------------



D Pattern (for verse)



e-2-----2----2h3-----3-----2-

B---3-----3------3-----3-----

G-----2----=-------2-----2---

D-0----------0-------0-----0-

A----------------------------

E----------------------------

INTRO = A pattern





A

It's been a while since you've been around

I'm drifting like a gypsy from town to town

D

I've been to France and Rome

Seen Duomo's glittered domes

A

Laid beneath Spanish summer skies

E                                          A

I've seen nothing so lovely as your violet eyes



A

Do you recall the turquoise sea?

On the isles off the shores of Greece

D

I've sworn I won't forget

                         A

Your exact smile when we went

I see you in everything

E

And everywhere I go,

                  A

I see your violet eyes





D                A

Seasons come and seasons pass

E                       A

Time can seem so fragile as a looking glass

D                                       A

Oh, I know there must be something more constant than time

E

Cause everywhere I go,

                  A

I see your violet eyes