Jump to: navigation, search

Weeping Tree (tabs)

Lyrics & Info

Tabs

Performances (2)

Weeping Tree
Tabbed byJessica
TuningStandard
CapoNone
INTRO: 
  Emadd9                              G
e---------------------------------------------------------------------------
B---------------------------------------------------------------------------
G----------0-----------------0-----------------0-----------------0----------
D-------4-----4-----------4-----4-----------0-----0-----------0-----0-------
A----2-----------2-----2-----------2-----2-----------2-----2-----------0----
E-0-----------------0-----------------3-----------------3-----------------0-

VERSE (SAME AS INTRO)

Emadd9    G
Don't cry pretty girl
Emadd9       G
Do as you're told to
Emadd9       G
Turn on each memory 
Emadd9                
just because it 
 G                   D
e-------------------------------------
B-----------------------------3-------
G----------0---------------2-----2----
D-------0-----0---------0-----------0-
A----2-----------2---0----------------
E-3-----------------------------------
  Hurts              you

Emadd9    G
There's a stranger's sillhouette
Emadd9                           G
Had it's way with you Because it wanted to
Emadd9            G
Don't worry ain't damaged those yet
Emadd9       G      D
Don't let it haunt you

CHORUS: 

  Em                Gmaj13            G                  D
e-------------------------------------------------------------------------
B-----------------------------------------------------------------3-------
G----------0-----------------0-----------------0---------------2-----2----
D-------2-----2-----------0-----0-----------0-----0---------0-----------0-
A----2-----------2-----0-----------0-----2-----------2---0----------------
E-0-----------------2-----------------3-----------------------------------
Just stand          out                                   in the rain
Em           Gmaj13  G       D
Until you're made    whole again
Em   Gmaj13  G     D
The plans you'll see 
          Emadd9     G
under the weeping tree
          Emadd9
Under the weeping tree

VERSE #2 (SAME AS ABOVE)
Emadd9         G
Underneath the starry sky
Emadd9        G
You're just a stranger
Emadd9       G
Tut tut, shh ain't it embarassing
Emadd9      G     D
To be yesterday's lover

CHORUS:
Em   Gmaj13  G      D
To stand out in the rain
Em           Gmaj13  G       D
Until you're made    whole again
Em   Gmaj13  G     D
The plans you'll see 
          Emadd9     G
under the weeping tree
          Emadd9     G     D
Under the weeping tree