Jump to: navigation, search

Where We Started From (tabs)

Lyrics & Info

Tabs

Performances (5)

Where We Started From
Tabbed byJessica
TuningDADF#Ae
CapoNone
TUNING: DADF#Ae  - - - NOTE THE "e"

Once this song is played the same way
a few times, I will come in a fix the
tab accordingly. 

INTRO:


e--5----5---5---5---5---5-------5---
A--5------5-4-----4-2-----2-0-----0-
F#---0--------0-------0-------0-----
D-----------------------------------
A--5--------4-------2-------0-------
D-----------------------------------


Her verse progs are either:


e-------5-------5-------5-------0---
A--5------5-4-----4-2-----2-0-----0-
F#---0--------0-------0-------0-----
D-----------------------------------
A--5--------4-------2-------0-------
D-----------------------------------

e-------0--------0-------0-------0----
A---------0--------0-------0-------0--
F#------------------------------------
D-------------------------------------
A---5---------5--------7-------7------
D-5----------5--------7-------7-------



OR (if she's feelin' lazy, or as played at the concert):


e-------0-------0-------0-------0---
A--5------5-4-----4-2-----2-0-----0-
F#---0--------0-------0-------0-----
D-----------------------------------
A--5--------4-------2-------0-------
D-----------------------------------

e-------0--------0-------0-------0----
A---------0--------0-------0-------0--
F#------------------------------------
D-------------------------------------
A---5---------5--------7-------7------
D-5----------5--------7-------7-------


Second part of the verse:

e---------5----------5--------5--------5----
A---5-------5--5-------5--5-----5--5-----5--
F#-----0----------0---------0--------0------
D-------------------------------------------
A---2----------0----------------------------
D-------------------------5--------5--------

e---------5----------5--------0--------0----
A---5-------5--5-------5--2-----2--2-----2--
F#-----0----------0---------2--------2------
D-------------------------------------------
A---2----------0----------------------------
D-------------------------2--------2--------


CHORUS

e-------0--------0-------0-------0----
A---------0--------0-------0-------0--
F#------------------------------------
D-------------------------------------
A---5---------5--------7-------7------
D-5----------5--------7-------7------- 

e---------0--------0---
A-----------0--------0-
F#---------------------
D----------------------
A-----5---------7------
D---5---------7--------


BRIDGE:


e--5---5---3---3---0---0-2/3-2----5---5---3---3---0---0-2/3-2---
A----0---0---0---0---0---------0----0---0---0---0---0---------0-
F#--------------------------------------------------------------
D--0-------0-------0---------0----------------------------------
A---------------------------------2-------2-------2---------2---
D---------------------------------------------------------------