Jump to: navigation, search

Without You By My Side (tabs)

Lyrics & Info

Tabs

Performances (6)

Without You By My Side
Tabbed byJessica
TuningStandard
CapoNone
Without You By My Side

INTRO: 

  C9       D/C
e-3--------2-------
B----3--------3----
G-------0--------0-
D------------------
A-3--------3-------
E------------------ X 3

  C9         D/C    G (x2)
e-3--------3p2p0--------------3---------------3------
B----3-----------3---------3-----3--------3------3---
G-------0---------------0--------------0-------------
D----------------------------------------------------
A-3--------3------------------------2----------------
E-------------------3--------------------------------


 C9        D/C
e-3--------2-------
B----3--------3----
G-------0--------0-
D------------------
A-3--------3-------
E------------------ X 4

I lie so tired in my bed and 
moon shows herself to the door

  G 
e-----------3---------------3------
B--------3-----3--------3------3---
G-----0--------------0-------------
D----------------------------------
A-----------------2----------------
E-3-------------------------------- X2
and I shut my eyes.

  C9       D/C
e-3--------2-------
B----3--------3----
G-------0--------0-
D------------------
A-3--------3-------
E------------------ X 4
I pray to God, won't you tell me please,
what's a girl like me doing

  G 
e-----------3---------------3------
B--------3-----3--------3------0---
G-----0--------------0-------------
D----------------------------------
A-----------------2----------------
E-3-------------------------------- X2
Lying here without you by my side?

  C9                      G
e-----------3-----------------------3--------------3------
B--------3-----3----------------3------3-------3------3---
G-----0----------------------0----------------------------
D-------------------------------------------0-------------
A-3----------------3-2-0-----------------2----------------
E-------------------------3-------------------------------
 Lying here without you by my side

  C9                                     A7sus4
e-----------3----------------------3--------------
B--------3-----3----------------3-----3-----------
G-----0----------------------0--------------------
D-------------------------2--------------2h3p2----
A-3----------------3-2-0------------------------3-
E-------------------------------------------------
Lying here without you by my side

  G                                 
e-----------3------------------3--------------3---------------
B--------3-----3-----------3------3-------3------3------------
G-----0-----------------0--------------0----------------------
D--------------------0----------------------------------------
A-2---------------------------------3----------------3p2p0----
E-----------------------------------------------------------2-

  G 
e-----------3---------------3------
B--------3-----3--------3------0---
G-----0--------------0-------------
D----------------------------------
A-----------------2----------------
E-3-------------------------------- X2


VERSE #2 (SAME AS ABOVE)
C9                  D/C           C9          D/C
The room fills with moonlight and memories of old times,
C9        D/C         C9      D/C       G
but don't worry about me, I'm just fine most of the time.
C9                  D/C                  C9       D/C             
The hardest part is late night, when I'm home all alone,
        C9       D/C              C9        D/C     G
and the house is so still nothing better to do than think about you.
          C9                     G
I'm Lying here without you by my side
          C9                     A7sus4    G
I'm lying here without you by my side

  Cadd9
e-----0--0--
B-----3--3--
G-----0--0--
D-----------
A-3---------
E----------- X 4

How quick my heart wants to believe, I'll never be lonely 

  G 
e-----------3---------------3------
B--------3-----3--------3------0---
G-----0--------------0-------------
D----------------------------------
A-----------------2----------------
E-3-------------------------------- X2
again.

  Cadd9
e-----0--0--
B-----3--3--
G-----0--0--
D-----------
A-3---------
E----------- X 4

It's those little things I never thought about much, that I miss most in the
  G 
e-----0--0-------0--0--
B-----3--3-------3--3--
G-----0--0-------0--0--
D----------------------
A------------2---------
E-3-------------------- X 2
end.

  Cadd9
e-----0--0--
B-----3--3--
G-----0--0--
D-----------
A-3---------
E----------- X 6
Like those sweet red-wine kisses, and the candlelight,
and the poetry, but mainly, it's just the warmth of your 
  G 
e-----0--0-------0--0--
B-----3--3-------3--3--
G-----0--0-------0--0--
D----------------------
A------------2---------
E-3-------------------- X 2
skin,

    C9                      G
e-----------3-----------------------3--------------3------
B--------3-----3----------------3------3-------3------3---
G-----0----------------------0----------------------------
D-------------------------------------------0-------------
A-3----------------3-2-0-----------------2----------------
E-------------------------3-------------------------------
  and having you   by my side,

   C9                                     A7sus4
e-----------3----------------------3--------------
B--------3-----3----------------3-----3-----------
G-----0----------------------0--------------------
D-------------------------2--------------2h3p2----
A-3----------------3-2-0------------------------3-
E-------------------------------------------------
 I'm Lying        here without you by my side

  G                                 
e-----------3------------------3--------------3---------------
B--------3-----3-----------3------3-------3------3------------
G-----0-----------------0--------------0----------------------
D--------------------0----------------------------------------
A-2---------------------------------3----------------3p2p0----
E-----------------------------------------------------------2-

  G 
e-----------3---------------3------
B--------3-----3--------3------0---
G-----0--------------0-------------
D----------------------------------
A-----------------2----------------
E-3-------------------------------- X2

VERSE #3 (SAME AS ABOVE):

             C9           D/C         C9         D/C
There's this weight in my heart, it's so heavy, so sad,
C9             D/C           C9      D/C   G
it felt like a wave that any moment comes crashing down,
C9  D/C  C9 D/C C9 D/C C9 D/C  G
and maybe my sorrow will drown tomorrow

          C9                     G
I'm Lying here without you by my side
          C9                     A7sus4    G
I'm lying here without you by my side