Jump to: navigation, search

All the Animals (tabs)

Lyrics & Info

Tabs

Performances (19)

All the Animals
Tabbed byBreAnn S
TuningDADF#AD
CapoNone
DADF#AD Tuning, No capo, 4/4 Time, Quarter note = ~112
                                 (metronomeonline.com)

Intro:

--12-----------11-----------9-----------7----------
------0-----0------0-----0-----0-----0-----0-----0-
---------0------------0-----------0-----------0----
---------------------------------------------------
--12-----------12-----------9-----------9----------
---------------------------------------------------


--7------------5-----------5-----------4-----------
-----0-----0------0-----0-----0-----0-----0-----0--
--------0------------0-----------0-----------0-----
---------------------------------------------------
--7------------7-----------5-----------5-----------
---------------------------------------------------


--4------------2-----------0-----------0-----------
-----0-----0------0-----0-----0-----0-----0-----0--
--------0------------0-----------0-----------0-----
---------------------------------------------------
--4------------4-----------2-----------2-----------
---------------------------------------------------


-----0-----------0---------------------------------
--4-----4-----5-----0------------------------------
-----------0-----------0---------------------------
---------------------------------------------------
--2-----------2------------------------------------
---------------------------------------------------


Verse 1:

--12-----------11-----------9-----------7----------
------0-----0------0-----0-----0-----0-----0-----0-
---------0------------0-----------0-----------0----
---------------------------------------------------
--12-----------12-----------9-----------9----------
---------------------------------------------------
  All          the          an  - i -   mals  

--7------------5-----------5-----------4-----------
-----0-----0------0-----0-----0-----0-----0-----0--
--------0------------0-----------0-----------0-----
---------------------------------------------------
--7------------7-----------5-----------5-----------
---------------------------------------------------
             Agree        you   and    me    

--4------------2-----------0-----------0-----------
-----0-----0------0-----0-----0-----0-----0-----0--
--------0------------0-----------0-----------0-----
---------------------------------------------------
--4------------4-----------2-----------2-----------
---------------------------------------------------
should be      a          team

-----0-----------0---------------------------------
--4-----4-----5-----0------------------------------
-----------0-----------0---------------------------
---------------------------------------------------
--2-----------2------------------------------------
---------------------------------------------------

Verse 1 Part 2:  Guitar same as above

And they walk on parade  
Say that we were made   
To be a team

Chorus:

--4------------4-----------4-----------4-----------
-----4-----4------4-----4-----4-----4-----4-----4--
--------0------------0-----------0-----------0-----
---------------------------------------------------
--2------------2-----------0-----------0-----------
---------------------------------------------------
               And my    flesh

--0------------0-----------4-----------4-----------
-----4-----4------4-----4-----4-----4-----4-----4--
--------0------------0-----------0-----------0-----
---------------------------------------------------
---------------------------------------------------
--5------------5-----------5-----------5-----------
 melts      beneath your tongue

--4------------4-----------4-----------4-----------
-----4-----4------4-----4-----4-----4-----4-----4--
--------0------------0-----------0-----------0-----
---------------------------------------------------
--2------------2-----------0-----------0-----------
---------------------------------------------------
               I       am your

--0------------0-----------4-----------4-----------
-----4-----4------4-----4-----4-----4-----4-----4--
--------0------------0-----------0-----------0-----
---------------------------------------------------
---------------------------------------------------
--5------------5-----------5-----------5-----------
 living                communion

Verse 2:

--12-----------11-----------9-----------7----------
------0-----0------0-----0-----0-----0-----0-----0-
---------0------------0-----------0-----------0----
---------------------------------------------------
--12-----------12-----------9-----------9----------
---------------------------------------------------
And all        the         rain - - - - bows 

--7------------5-----------5-----------4-----------
-----0-----0------0-----0-----0-----0-----0-----0--
--------0------------0-----------0-----------0-----
---------------------------------------------------
--7------------7-----------5-----------5-----------
---------------------------------------------------
         Tell me     that they        know

--4------------2-----------0-----------0-----------
-----0-----0------0-----0-----0-----0-----0-----0--
--------0------------0-----------0-----------0-----
---------------------------------------------------
--4------------4-----------2-----------2-----------
---------------------------------------------------
We're a       perfect     pair

-----0-----------0---------------------------------
--4-----4-----5-----0------------------------------
-----------0-----------0---------------------------
---------------------------------------------------
--2-----------2------------------------------------
---------------------------------------------------

Verse 2 Part 2:  Guitar same as above

And the birds up in the sky
Say they can see it from way up high
We're a perfect pair

Chorus 2:  Guitar same as 1st Chorus 

And my wings weaken beneath your will
And before you I am trembling and still

Bridge:
                                                 3X
-----0-----------0-----------0-----------0---------
--4-----4-----4-----4-----2-----2-----2-----2------
-----------0-----------0-----------0-----------0---
---------------------------------------------------
--4-----------4-----------2-----------2------------
---------------------------------------------------
             All the birds know it
             One and one is two
             All the birds (bees) see it 

-----0-----------0-----------0---------------------
--4-----4-----4-----4-----2-----2-----2------------
-----------0-----------0-----------0---------------
---------------------------------------------------
--4-----------4-----------2-----------2------------
---------------------------------------------------
              Why can't  you         and...

Verse 3:  Guitar same as other verses

All the light of the sun
Doesn't help me out none
Cuz you still can't see me