Jump to: navigation, search

Fat Boy (tabs)

Lyrics & Info

Tabs

Performances (59)

Fat Boy
Tabbed byBreAnn S
TuningDADF#AD
CapoNone
Tuning = D A D F# A D  (Tabbed from "Spirit")

In 3/4 time, Dotted Quarter = ~106-108 
(metronomeonline.com)


Intro:

---------0-------------0-------------0-------------0------------0-----
--7----7---7----5----5---5----4----4---4----5----5---5----5---5---5---
-----0-------0-----0-------0-----0-------0-----0-------0----0-------0-
----------------------------------------------------------------------
--0-------------0-------------0-------------0-------------0-----------
----------------------------------------------------------------------

Verse 1:

           Fat boy              goes to the pool

---------0-------------0-------------0-------------0------
--7----7---7----5----5---5----4----4---4----5----5---5----
-----0-------0-----0-------0-----0-------0-----0-------0--
----------------------------------------------------------
--0-------------0-------------0-------------0-------------
----------------------------------------------------------

     Sees his reflection, doesn't know what to do

---------0-------------0-------------0-------------0------
--7----7---7----5----5---5----4----4---4----5----5---5----
-----0-------0-----0-------0-----0-------0-----0-------0--
----------------------------------------------------------
--0-------------0-------------0-------------0-------------
----------------------------------------------------------

He feels little inside         And filled with pride 

----------------5-----------5------------7------------7-----
--------------5---5-------5---5--------7---7--------7---7---
------------5-------5---5-------5----7-------7----7-------7-
------------------------------------------------------------
------------------------------------------------------------
----------5-----------5------------7------------7-----------

 Oh,         fragile       flame

-------7-----------7-------------------------------------------
-----7---7-------7---7-----------------------------------------
---7-------7---7-------7---------0-----------0-----------0-----
-------------------------------5---5-------5---5-------5---5---
-----------------------------5-------5---5-------5---5-------5-
-7-----------7-------------5-----------5-----------5-----------

No one sees the same

----------------------------------------------------------------
----------------------------------------------------------------
-------0--------------0-----------0-----------0-----------0-----
-----5---5----------0---0-------0---0-------0---0-------0---0---
---5-------5------0-------0---0-------0---0-------0---0-------0-
-5--------------0-----------0-----------0-----------0-----------

Verse 2: Guitar same as Verse 1

Fat boy goes about his day
Trying to think of funny things to say
Like, "this is just a game I play" And, "I like me this way"
Oh, fragile flame
No one feels the same

Bridge:

    Hush,                    sleep              Don't


---------0------------0------------0------------0---------
---4---4---4----4---4---4----2---2---2----2---2---2-------
-----0-------0----0-------0----0-------0----0-------0-----
----------------------------------------------------------
---0------------0-----0------0------------0-----0---------
----------------------------------------------------------

   think,            just   eat

---------0------------0------------0------------0---------
---4---4---4----4---4---4----2---2---2----2---2---2-------
-----0-------0----0-------0----0-------0----0-------0-----
----------------------------------------------------------
---0------------0-----0------0------------0-----0---------
----------------------------------------------------------

        You're daddy's little boy

---------0------------0------------0------------0---------
---4---4---4----4---4---4----2---2---2----2---2---2-------
-----0-------0----0-------0----0-------0----0-------0-----
----------------------------------------------------------
---0------------0-----0------0------------0-----0---------
----------------------------------------------------------

        You're mama's pride and joy   Ya know      they

---------0------------0------------0------------0---------
---4---4---4----4---4---4----2---2---2----2---2---2-------
-----0-------0----0-------0----0-------0----0-------0-----
----------------------------------------------------------
---0------------0-----0------0------------0-----0---------
----------------------------------------------------------

   love ya                          But not because they 

---------5-----------5------------5------------5----------
-------5---5-------5---5--------5---5--------5---5--------
-----5-------5---5-------5----5-------5----5-------5------
----------------------------------------------------------
----------------------------------------------------------
---5-----------5------------5------------5----------------

   hold                     ya

---------7-----------7-----------
-------7---7-------7---7---------
-----7-------7---7-------7-------
---------------------------------
---------------------------------
---7-----------7-----------------

Verse 3: First part of verse, Guitar is same as other verses

Fat boy says, "Wouldn't it be nice
if I could melt myself like ice or

  outrun    my  skin and just be    pure  wind"  

-----------5-----------5------------7------------
---------5---5-------5---5--------7---7----------
-------5-------5---5-------5----7-------7--------
-------------------------------------------------
-------------------------------------------------
-----5-----------5------------7------------7-----

   Oh,  fragile  fla-a-a-ame   (Sung acappella) 

                           Sometimes I feel the   same       

----------------------------------------------------------------12-
-------------------------------------------------------------------
--------0-----------0-----------0-----------0------------0---------
------5---5-------5---5-------5---5-------5---5--------0---0-------
----5-------5---5-------5---5-------5---5-------5----0-------0-----
--5-----------5-----------5-----------5------------0---------------
                                                                ^^
                                                             (Harm.)