Jump to: navigation, search

Long Gone Daddy (tabs)

Lyrics & Info

Tabs

Performances (1)

Long Gone Daddy
Tabbed byJessica
TuningStandard
CapoNone
Long Gone Daddy
STANDARD TUNING = EADGBe

INTRO:


e--2------2-------1------1--------------0---------
B----3------3-------3------3----2-----3---3-2-0-2-
G------2------2-------2------2----2---------------
D--0------0-------0------0----------2-------------
A-------------------------------0-----------0-----
E-------------------------------------------------

e--2------2-------1------1--------------------2-------2-----
B----3------3-------3------3----2------2--------3-------3---
G------2------2-------2------2----2------2--------2-------2-
D--0--------------0-----------------2------2----------------
A-------------------------------0-------------0-------------
E-----------------------------------------------------------
Oh, daddy, I'm coming home to stay 

e--2------2-------1------1--------------------2-------2-----
B----3------3-------3------3----2------2--------3-------3---
G------2------2-------2------2----2------2--------2-------2-
D--0--------------0-----------------2------2----------------
A-------------------------------0-------------0-------------
E-----------------------------------------------------------
And I swear that I'll never go away

e--2------2-------------0------------------2-----2------
B----3------3----0--------0------2------2----3-----3----
G------2------2-------1-----1---------2--------2-----2--
D--0----------------2---------2-----2------0------------
A----------------2---------------0----------------------
E-------------------------------------------------------
I've long forgotten the cruelty of yesterday


e--2------2-------------0------------------2-----2------
B----3------3----0--------0------2------2----3-----3----
G------2------2-------1-----1---------2--------2-----2--
D--0----------------2---------2-----2------0------------
A----------------2---------------0----------------------
E------------------------------------------------------- 
And since forgiven all the things you cannot say 

e--2------2-------------0------------------2-----2------
B----3------3----0--------0------2------2----3-----3----
G------2------2-------1-----1---------2--------2-----2--
D--0----------------2---------2-----2------0------------
A----------------2---------------0----------------------
E-------------------------------------------------------
Like I love you; I know you do 


e--2------2-------1------1--------------0---------
B----3------3-------3------3----2-----3---3-2-0-2-
G------2------2-------2------2----2---------------
D--0------0-------0------0----------2-------------
A-------------------------------0-----------0-----
E-------------------------------------------------
Good night 

Love is not such an elusive thing 
Most people try to make it come 
But I can't just make mine leave 
And I've long given up 
Trying to figure out 
Why when most loves whisper, 
This one seems to shout 
I love you 
I know you do 
Good night 

So turn over and turn out the light 
You're a worn out old daddy 
But you're mine tonight 
Friends all say 
I'm crazy to love you 
But they don't see 
All the sweet little things you do 
I know you do 
Good night