Jump to: navigation, search

Marital Carnival (tabs)

Lyrics & Info

Tabs

Performances (11)

Marital Carnival
Tabbed byJessica
TuningDADF#AD
CapoNone
INTRO/VERSE: 

   F#                G           F#                G
d-----4-------4--4-------5--7P5-----4-------4--4-------5--9P7P5-
a-----4-------4--4------5-----------4-------4--4------5---------
F#----4-------4--4-----5------------4-------4--4-----5----------
D--4-------4---------5-----------4-------4---------5------------
A---------------------------------------------------------------
D---------------------------------------------------------------

  You come home................ Too bad, cause I feel romantic.

   F#                G           A
d-----4-------4--4-------5--7P5-----7-------7--7------7--
a-----4-------4--4------5-----------7-------7--7------7--
F#----4-------4--4-----5------------7-------7--7------7--
D--4-------4---------5-----------7-------7---------7-----
A--------------------------------------------------------
D--------------------------------------------------------
   I know you're stressed...... Tonight, I guess ..........


CHORUS: 

   A                 G
d-----7-------7--7-------5-------5--5--
a-----7-------7--7-------5-------5--5--
F#----7-------7--7-------5-------5--5--
D--7-------7----------5-------5--------
A--------------------------------------
D--------------------------------------
Cause I don't care   like I did a minute ago
I tried to love .....it was just to stressful though
It's like leaving ...when you go swimming  
   A                 G
d-----7-------7--7---5--5----
a-----7-------7--7---5--5----
F#----7-------7--7---5--5----
D--7-------7---------5--5----
A----------------------------
D----------------------------
And I never will fight...what doesn't want  
  F#/D
d-----4-4----4-4--
a-----3-3----3-3--
F#----4-3----4-3--
D--0------0-------
A-----------------
D-----------------
   winning.

BRIDGE: 

F#(barre 4)G(barre 5)
Oh Marital Carnival
F#        G 
Oh Marital Carnival
F#        G
Oh Marital Carnival
A                  F#/D
STOP! I wanna get off!