Jump to: navigation, search

Where You Are (tabs)

Lyrics & Info

Tabs

Performances (13)

Where You Are
Tabbed byJessica
TuningStandard
Capo3rd Fret
Where You Are 
As performed live at The Clio. 

"Bouncy" tempo


INTRO: Repeat X 2

  A (vary)

e-----------------------
B-0h2-2--2--2--3--0--2--
G-2---2--2--2--2--2--2--
D-2---2--2--2--2--2--2--
A-0---0--0--0--0--0--0--
E-----------------------

VERSE: 

  A         Amaj7     Asus4   A

e-0-0-0-0---0-0-0-0---0-0-0---0-0-0-0--
B-2-2-2-2---2-2-2-2---3-3-3---2-2-2-2--
G-2-2-2-2---1-1-1-1---2-2-2---2-2-2-2--
D-2-2-2-2---2-2-2-2---0-0-0---2-2-2-2--
A-0-0-0-0---0-0-0-0-----------0-0-0-0--
E--------------------------------------


  A         Amaj7     Asus4   E

e-0-0-0-0---0-0-0-0---0-0-0---0-0-0-0--
B-2-2-2-2---2-2-2-2---3-3-3---0-0-0-0--
G-2-2-2-2---1-1-1-1---2-2-2---1-1-1-1--
D-2-2-2-2---2-2-2-2---0-0-0---2-2-2-2--
A-0-0-0-0---0-0-0-0--------------------
E--------------------------------------

A Amaj7   Asus4            A

I         called you late last night

A           

Said you didn't feel like 

Amaj7            

talkin' Had to blow off a little bit of 

Asus4

steam Said you were 

E

tired of feeling so up-tight

A        Amaj7

You make me so blue

Asus4         A

Oh, I get so lost inside of you, but

Asus4       A          E


e-0-0-0-0-0-0-0-0-0-0-0-0-0-0-0-0-0-0-0-0-0-
B-3-3-3-3-3-2-2-2-2-2-0-0-0-0-0-0-0-0-0-0-0-
G-2-2-2-2-2-2-2-2-2-2-1-1-1-1-1-1-1-1-1-1-1-
D-0-0-0-0-0-2-2-2-2-2-2-2-2-2-2-2-2-2-2-2-2-
A-------------------------------------------
E-------------------------------------------

I can not always find my way to where you 

PLAY INTRO X 2

are

VERSE 2:

Oh, used to be so easy
Use to be so much fun
You say (yea) that was back when you belived in my love, but that

Things are not so simple now
Oh, I've turned off the lights somehow, and
In the darkness you cannot always find your way
To where I am

    C#m OR E11  Asus4      A           E  A  

e---4-4-4-4-4---5-5-5-5-5-------------------
B---0-0-0-0-0---0-0-0-0-0--3--2--0--0--0--0-
G---4-4-4-4-4---4-4-4-4-4--0--0--0--2--1--2-
D---0-0-0-0-0---0-0-0-0-0--0--0--0--0--0--0-
A-------------------------------------------
E-------------------------------------------

Please          don't      Ta-ke your life from me


    C#m OR E11  Asus4      A           E      

e---4-4-4-4-4---5-5-5-5-5----------------
B---0-0-0-0-0---0-0-0-0-0--3--2--0--0--0-
G---4-4-4-4-4---4-4-4-4-4--0--0--0--2--1-
D---0-0-0-0-0---0-0-0-0-0--0--0--0--0--0-
A----------------------------------------
E----------------------------------------

'Cause of you did I would no longer be able to 

  F#m    E(add 11)          A       E7  

e--------------------------------------------
B-0-0-0-0-0-0-0-0-----------0-0-0-0-3-3-3-3--
G-2-2-2-2-1-1-1-1-----------2-2-2-2-1-1-1-1--
D-4-4-4-4-2-2-2-2-----------2-2-2-2-0-0-0-0--
A-0-0-0-0-0-0-0-0-----------0-0-0-0-0-0-0-0--
E--------------------------------------------

 see      Please, can't you see I    need, 

PLAY INTRO X 2

you

VERSE 3: 

I am a princess and I'm locked inside this stone tower of song, and I
I'm trying to write messages on the wondow baby, God I just wanna belong

Choose me
Choose me
Pick me, take me, oh I need to believe
Oh, no one else exsits for you now, and
No one else exsists for me
Oh, you are my home, and I have
Finally found my way
To where you are